  0
SECTION
  2
HEADER
  9
$ACADVER
  1
AC1014
  9
$ACADMAINTVER
 70
     9
  9
$DWGCODEPAGE
  3
ANSI_932
  9
$INSBASE
 10
0.0
 20
0.0
 30
0.0
  9
$EXTMIN
 10
435.1020029686684
 20
27.47760817829743
 30
0.0
  9
$EXTMAX
 10
691.2540851588654
 20
167.6296901771726
 30
0.0
  9
$LIMMIN
 10
0.0
 20
0.0
  9
$LIMMAX
 10
10000.0
 20
10000.0
  9
$ORTHOMODE
 70
     1
  9
$REGENMODE
 70
     1
  9
$FILLMODE
 70
     1
  9
$QTEXTMODE
 70
     0
  9
$MIRRTEXT
 70
     1
  9
$DRAGMODE
 70
     2
  9
$LTSCALE
 40
5.0
  9
$OSMODE
 70
    32
  9
$ATTMODE
 70
     1
  9
$TEXTSIZE
 40
3.5
  9
$TRACEWID
 40
1.0
  9
$TEXTSTYLE
  7
AD-STANDARD
  9
$CLAYER
  8
CENTER
  9
$CELTYPE
  6
BYLAYER
  9
$CECOLOR
 62
   256
  9
$CELTSCALE
 40
1.0
  9
$DELOBJ
 70
     1
  9
$DISPSILH
 70
     0
  9
$DIMSCALE
 40
1.0
  9
$DIMASZ
 40
0.18
  9
$DIMEXO
 40
0.0625
  9
$DIMDLI
 40
0.38
  9
$DIMRND
 40
0.0
  9
$DIMDLE
 40
0.0
  9
$DIMEXE
 40
0.18
  9
$DIMTP
 40
0.0
  9
$DIMTM
 40
0.0
  9
$DIMTXT
 40
0.18
  9
$DIMCEN
 40
0.09
  9
$DIMTSZ
 40
0.0
  9
$DIMTOL
 70
     0
  9
$DIMLIM
 70
     0
  9
$DIMTIH
 70
     1
  9
$DIMTOH
 70
     1
  9
$DIMSE1
 70
     0
  9
$DIMSE2
 70
     0
  9
$DIMTAD
 70
     0
  9
$DIMZIN
 70
     0
  9
$DIMBLK
  1

  9
$DIMASO
 70
     1
  9
$DIMSHO
 70
     1
  9
$DIMPOST
  1

  9
$DIMAPOST
  1

  9
$DIMALT
 70
     0
  9
$DIMALTD
 70
     2
  9
$DIMALTF
 40
25.4
  9
$DIMLFAC
 40
1.0
  9
$DIMTOFL
 70
     0
  9
$DIMTVP
 40
0.0
  9
$DIMTIX
 70
     0
  9
$DIMSOXD
 70
     0
  9
$DIMSAH
 70
     0
  9
$DIMBLK1
  1

  9
$DIMBLK2
  1

  9
$DIMSTYLE
  2
STANDARD
  9
$DIMCLRD
 70
     0
  9
$DIMCLRE
 70
     0
  9
$DIMCLRT
 70
     0
  9
$DIMTFAC
 40
1.0
  9
$DIMGAP
 40
0.09
  9
$DIMJUST
 70
     0
  9
$DIMSD1
 70
     0
  9
$DIMSD2
 70
     0
  9
$DIMTOLJ
 70
     1
  9
$DIMTZIN
 70
     0
  9
$DIMALTZ
 70
     0
  9
$DIMALTTZ
 70
     0
  9
$DIMFIT
 70
     3
  9
$DIMUPT
 70
     0
  9
$DIMUNIT
 70
     2
  9
$DIMDEC
 70
     4
  9
$DIMTDEC
 70
     4
  9
$DIMALTU
 70
     2
  9
$DIMALTTD
 70
     2
  9
$DIMTXSTY
  7
STANDARD
  9
$DIMAUNIT
 70
     0
  9
$LUNITS
 70
     2
  9
$LUPREC
 70
     4
  9
$SKETCHINC
 40
1.0
  9
$FILLETRAD
 40
3.0
  9
$AUNITS
 70
     0
  9
$AUPREC
 70
     0
  9
$MENU
  1
.
  9
$ELEVATION
 40
0.0
  9
$PELEVATION
 40
0.0
  9
$THICKNESS
 40
0.0
  9
$LIMCHECK
 70
     0
  9
$BLIPMODE
 70
     0
  9
$CHAMFERA
 40
1.0
  9
$CHAMFERB
 40
1.0
  9
$CHAMFERC
 40
673.4006734006733
  9
$CHAMFERD
 40
0.0
  9
$SKPOLY
 70
     0
  9
$TDCREATE
 40
2451430.616412153
  9
$TDUPDATE
 40
2453991.833953310
  9
$TDINDWG
 40
0.3264560301
  9
$TDUSRTIMER
 40
0.3264560301
  9
$USRTIMER
 70
     1
  9
$ANGBASE
 50
0.0
  9
$ANGDIR
 70
     0
  9
$PDMODE
 70
     0
  9
$PDSIZE
 40
0.0
  9
$PLINEWID
 40
0.0
  9
$COORDS
 70
     1
  9
$SPLFRAME
 70
     0
  9
$SPLINETYPE
 70
     6
  9
$SPLINESEGS
 70
     8
  9
$ATTDIA
 70
     0
  9
$ATTREQ
 70
     1
  9
$HANDLING
 70
 10241
  9
$HANDSEED
  5
2253
  9
$SURFTAB1
 70
     6
  9
$SURFTAB2
 70
     6
  9
$SURFTYPE
 70
     6
  9
$SURFU
 70
     6
  9
$SURFV
 70
     6
  9
$UCSNAME
  2

  9
$UCSORG
 10
0.0
 20
0.0
 30
0.0
  9
$UCSXDIR
 10
1.0
 20
0.0
 30
0.0
  9
$UCSYDIR
 10
0.0
 20
1.0
 30
0.0
  9
$PUCSNAME
  2

  9
$PUCSORG
 10
0.0
 20
0.0
 30
0.0
  9
$PUCSXDIR
 10
1.0
 20
0.0
 30
0.0
  9
$PUCSYDIR
 10
0.0
 20
1.0
 30
0.0
  9
$USERI1
 70
     0
  9
$USERI2
 70
     0
  9
$USERI3
 70
     0
  9
$USERI4
 70
     0
  9
$USERI5
 70
     0
  9
$USERR1
 40
0.0
  9
$USERR2
 40
0.0
  9
$USERR3
 40
0.0
  9
$USERR4
 40
0.0
  9
$USERR5
 40
0.0
  9
$WORLDVIEW
 70
     1
  9
$SHADEDGE
 70
     3
  9
$SHADEDIF
 70
    70
  9
$TILEMODE
 70
     1
  9
$MAXACTVP
 70
    16
  9
$PINSBASE
 10
0.0
 20
0.0
 30
0.0
  9
$PLIMCHECK
 70
     0
  9
$PEXTMIN
 10
20.0
 20
12.0
 30
0.0
  9
$PEXTMAX
 10
405.0
 20
276.9999999999999
 30
0.0
  9
$PLIMMIN
 10
0.0
 20
0.0
  9
$PLIMMAX
 10
409.8899999999999
 20
282.8899999999999
  9
$UNITMODE
 70
     0
  9
$VISRETAIN
 70
     0
  9
$PLINEGEN
 70
     0
  9
$PSLTSCALE
 70
     1
  9
$TREEDEPTH
 70
  3020
  9
$PICKSTYLE
 70
     1
  9
$CMLSTYLE
  2
STANDARD
  9
$CMLJUST
 70
     0
  9
$CMLSCALE
 40
1.0
  9
$PROXYGRAPHICS
 70
     1
  9
$MEASUREMENT
 70
     1
  0
ENDSEC
  0
SECTION
  2
CLASSES
  0
CLASS
  1
LWPOLYLINE
  2
AcDbPolyline
  3
AutoCAD 2000
 90
        0
280
     0
281
     1
  0
CLASS
  1
OLE2FRAME
  2
AcDbOle2Frame
  3
AutoCAD 2000
 90
        0
280
     0
281
     1
  0
CLASS
  1
DICTIONARYVAR
  2
AcDbDictionaryVar
  3
AutoCAD 2000
 90
        0
280
     0
281
     0
  0
CLASS
  1
HATCH
  2
AcDbHatch
  3
AutoCAD 2000
 90
        0
280
     0
281
     1
  0
CLASS
  1
ACDBDICTIONARYWDFLT
  2
AcDbDictionaryWithDefault
  3
AutoCAD 2000
 90
        0
280
     0
281
     0
  0
CLASS
  1
ACDBPLACEHOLDER
  2
AcDbPlaceHolder
  3
AutoCAD 2000
 90
        0
280
     0
281
     0
  0
CLASS
  1
LAYOUT
  2
AcDbLayout
  3
AutoCAD 2000
 90
        0
280
     0
281
     0
  0
CLASS
  1
PLOTSETTINGS
  2
AcDbPlotSettings
  3
AutoCAD 2000
 90
        0
280
     0
281
     0
  0
CLASS
  1
LONG_TRANSACTION
  2
AcDbLongTransaction
  3
AutoCAD 2000
 90
        0
280
     0
281
     0
  0
CLASS
  1
LWPOLYLINE
  2
AcDbPolyline
  3
AutoCAD 2000
 90
        0
280
     0
281
     1
  0
CLASS
  1
HATCH
  2
AcDbHatch
  3
AutoCAD 2000
 90
        0
280
     0
281
     1
  0
CLASS
  1
XRECORD
  2
AcDbXrecord
  3
AutoCAD 2000
 90
        0
280
     0
281
     0
  0
CLASS
  1
LONG_TRANSACTION
  2
AcDbLongTransaction
  3
AutoCAD 2000
 90
        0
280
     0
281
     0
  0
CLASS
  1
LWPOLYLINE
  2
AcDbPolyline
  3
AutoCAD 2000
 90
        0
280
     0
281
     1
  0
CLASS
  1
HATCH
  2
AcDbHatch
  3
AutoCAD 2000
 90
        0
280
     0
281
     1
  0
CLASS
  1
XRECORD
  2
AcDbXrecord
  3
AutoCAD 2000
 90
        0
280
     0
281
     0
  0
CLASS
  1
LONG_TRANSACTION
  2
AcDbLongTransaction
  3
AutoCAD 2000
 90
        0
280
     0
281
     0
  0
CLASS
  1
LWPOLYLINE
  2
AcDbPolyline
  3
AutoCAD 2000
 90
        0
280
     0
281
     1
  0
CLASS
  1
HATCH
  2
AcDbHatch
  3
AutoCAD 2000
 90
        0
280
     0
281
     1
  0
CLASS
  1
XRECORD
  2
AcDbXrecord
  3
AutoCAD 2000
 90
        0
280
     0
281
     0
  0
CLASS
  1
LONG_TRANSACTION
  2
AcDbLongTransaction
  3
AutoCAD 2000
 90
        0
280
     0
281
     0
  0
CLASS
  1
LWPOLYLINE
  2
AcDbPolyline
  3
AutoCAD 2000
 90
        0
280
     0
281
     1
  0
CLASS
  1
HATCH
  2
AcDbHatch
  3
AutoCAD 2000
 90
        0
280
     0
281
     1
  0
CLASS
  1
XRECORD
  2
AcDbXrecord
  3
AutoCAD 2000
 90
        0
280
     0
281
     0
  0
CLASS
  1
LONG_TRANSACTION
  2
AcDbLongTransaction
  3
AutoCAD 2000
 90
        0
280
     0
281
     0
  0
CLASS
  1
LWPOLYLINE
  2
AcDbPolyline
  3
AutoCAD 2000
 90
        0
280
     0
281
     1
  0
CLASS
  1
HATCH
  2
AcDbHatch
  3
AutoCAD 2000
 90
        0
280
     0
281
     1
  0
CLASS
  1
XRECORD
  2
AcDbXrecord
  3
AutoCAD 2000
 90
        0
280
     0
281
     0
  0
CLASS
  1
LONG_TRANSACTION
  2
AcDbLongTransaction
  3
AutoCAD 2000
 90
        0
280
     0
281
     0
  0
CLASS
  1
LWPOLYLINE
  2
AcDbPolyline
  3
AutoCAD 2000
 90
        0
280
     0
281
     1
  0
CLASS
  1
HATCH
  2
AcDbHatch
  3
AutoCAD 2000
 90
        0
280
     0
281
     1
  0
CLASS
  1
XRECORD
  2
AcDbXrecord
  3
AutoCAD 2000
 90
        0
280
     0
281
     0
  0
CLASS
  1
LONG_TRANSACTION
  2
AcDbLongTransaction
  3
AutoCAD 2000
 90
        0
280
     0
281
     0
  0
CLASS
  1
LWPOLYLINE
  2
AcDbPolyline
  3
AutoCAD 2000
 90
        0
280
     0
281
     1
  0
CLASS
  1
HATCH
  2
AcDbHatch
  3
AutoCAD 2000
 90
        0
280
     0
281
     1
  0
CLASS
  1
XRECORD
  2
AcDbXrecord
  3
AutoCAD 2000
 90
        0
280
     0
281
     0
  0
CLASS
  1
LONG_TRANSACTION
  2
AcDbLongTransaction
  3
AutoCAD 2000
 90
        0
280
     0
281
     0
  0
CLASS
  1
LWPOLYLINE
  2
AcDbPolyline
  3
AutoCAD 2000
 90
        0
280
     0
281
     1
  0
CLASS
  1
HATCH
  2
AcDbHatch
  3
AutoCAD 2000
 90
        0
280
     0
281
     1
  0
CLASS
  1
XRECORD
  2
AcDbXrecord
  3
AutoCAD 2000
 90
        0
280
     0
281
     0
  0
CLASS
  1
LONG_TRANSACTION
  2
AcDbLongTransaction
  3
AutoCAD 2000
 90
        0
280
     0
281
     0
  0
CLASS
  1
LWPOLYLINE
  2
AcDbPolyline
  3
AutoCAD 2000
 90
        0
280
     0
281
     1
  0
CLASS
  1
HATCH
  2
AcDbHatch
  3
AutoCAD 2000
 90
        0
280
     0
281
     1
  0
CLASS
  1
XRECORD
  2
AcDbXrecord
  3
AutoCAD 2000
 90
        0
280
     0
281
     0
  0
CLASS
  1
LONG_TRANSACTION
  2
AcDbLongTransaction
  3
AutoCAD 2000
 90
        0
280
     0
281
     0
  0
CLASS
  1
LWPOLYLINE
  2
AcDbPolyline
  3
AutoCAD 2000
 90
        0
280
     0
281
     1
  0
CLASS
  1
HATCH
  2
AcDbHatch
  3
AutoCAD 2000
 90
        0
280
     0
281
     1
  0
CLASS
  1
XRECORD
  2
AcDbXrecord
  3
AutoCAD 2000
 90
        0
280
     0
281
     0
  0
CLASS
  1
LONG_TRANSACTION
  2
AcDbLongTransaction
  3
AutoCAD 2000
 90
        0
280
     0
281
     0
  0
CLASS
  1
LWPOLYLINE
  2
AcDbPolyline
  3
AutoCAD 2000
 90
        0
280
     0
281
     1
  0
CLASS
  1
HATCH
  2
AcDbHatch
  3
AutoCAD 2000
 90
        0
280
     0
281
     1
  0
CLASS
  1
XRECORD
  2
AcDbXrecord
  3
AutoCAD 2000
 90
        0
280
     0
281
     0
  0
CLASS
  1
LONG_TRANSACTION
  2
AcDbLongTransaction
  3
AutoCAD 2000
 90
        0
280
     0
281
     0
  0
CLASS
  1
LWPOLYLINE
  2
AcDbPolyline
  3
AutoCAD 2000
 90
        0
280
     0
281
     1
  0
CLASS
  1
HATCH
  2
AcDbHatch
  3
AutoCAD 2000
 90
        0
280
     0
281
     1
  0
CLASS
  1
XRECORD
  2
AcDbXrecord
  3
AutoCAD 2000
 90
        0
280
     0
281
     0
  0
CLASS
  1
LONG_TRANSACTION
  2
AcDbLongTransaction
  3
AutoCAD 2000
 90
        0
280
     0
281
     0
  0
CLASS
  1
LWPOLYLINE
  2
AcDbPolyline
  3
AutoCAD 2000
 90
        0
280
     0
281
     1
  0
CLASS
  1
HATCH
  2
AcDbHatch
  3
AutoCAD 2000
 90
        0
280
     0
281
     1
  0
CLASS
  1
XRECORD
  2
AcDbXrecord
  3
AutoCAD 2000
 90
        0
280
     0
281
     0
  0
CLASS
  1
LONG_TRANSACTION
  2
AcDbLongTransaction
  3
AutoCAD 2000
 90
        0
280
     0
281
     0
  0
CLASS
  1
LWPOLYLINE
  2
AcDbPolyline
  3
AutoCAD 2000
 90
        0
280
     0
281
     1
  0
CLASS
  1
HATCH
  2
AcDbHatch
  3
AutoCAD 2000
 90
        0
280
     0
281
     1
  0
CLASS
  1
XRECORD
  2
AcDbXrecord
  3
AutoCAD 2000
 90
        0
280
     0
281
     0
  0
CLASS
  1
LONG_TRANSACTION
  2
AcDbLongTransaction
  3
AutoCAD 2000
 90
        0
280
     0
281
     0
  0
CLASS
  1
LWPOLYLINE
  2
AcDbPolyline
  3
AutoCAD 2000
 90
        0
280
     0
281
     1
  0
CLASS
  1
HATCH
  2
AcDbHatch
  3
AutoCAD 2000
 90
        0
280
     0
281
     1
  0
CLASS
  1
XRECORD
  2
AcDbXrecord
  3
AutoCAD 2000
 90
        0
280
     0
281
     0
  0
CLASS
  1
LONG_TRANSACTION
  2
AcDbLongTransaction
  3
AutoCAD 2000
 90
        0
280
     0
281
     0
  0
CLASS
  1
LWPOLYLINE
  2
AcDbPolyline
  3
AutoCAD 2000
 90
        0
280
     0
281
     1
  0
CLASS
  1
HATCH
  2
AcDbHatch
  3
AutoCAD 2000
 90
        0
280
     0
281
     1
  0
CLASS
  1
XRECORD
  2
AcDbXrecord
  3
AutoCAD 2000
 90
        0
280
     0
281
     0
  0
CLASS
  1
LONG_TRANSACTION
  2
AcDbLongTransaction
  3
AutoCAD 2000
 90
        0
280
     0
281
     0
  0
CLASS
  1
LWPOLYLINE
  2
AcDbPolyline
  3
AutoCAD 2000
 90
        0
280
     0
281
     1
  0
CLASS
  1
HATCH
  2
AcDbHatch
  3
AutoCAD 2000
 90
        0
280
     0
281
     1
  0
CLASS
  1
XRECORD
  2
AcDbXrecord
  3
AutoCAD 2000
 90
        0
280
     0
281
     0
  0
CLASS
  1
LONG_TRANSACTION
  2
AcDbLongTransaction
  3
AutoCAD 2000
 90
        0
280
     0
281
     0
  0
CLASS
  1
LWPOLYLINE
  2
AcDbPolyline
  3
AutoCAD 2000
 90
        0
280
     0
281
     1
  0
CLASS
  1
HATCH
  2
AcDbHatch
  3
AutoCAD 2000
 90
        0
280
     0
281
     1
  0
CLASS
  1
XRECORD
  2
AcDbXrecord
  3
AutoCAD 2000
 90
        0
280
     0
281
     0
  0
ENDSEC
  0
SECTION
  2
TABLES
  0
TABLE
  2
VPORT
  5
8
330
0
100
AcDbSymbolTable
 70
     3
  0
VPORT
  5
2230
330
8
100
AcDbSymbolTableRecord
100
AcDbViewportTableRecord
  2
*ACTIVE
 70
     0
 10
0.0
 20
0.0
 11
1.0
 21
1.0
 12
552.8694671496887
 22
72.9549995564991
 13
0.0
 23
0.0
 14
168.0
 24
168.0
 15
0.0
 25
0.0
 16
0.0
 26
0.0
 36
1.0
 17
0.0
 27
0.0
 37
0.0
 40
365.4715763301132
 41
1.602080624187256
 42
50.0
 43
0.0
 44
0.0
 50
0.0
 51
0.0
 71
     0
 72
   100
 73
     1
 74
     0
 75
     0
 76
     0
 77
     0
 78
     1
  0
ENDTAB
  0
TABLE
  2
LTYPE
  5
5
330
0
100
AcDbSymbolTable
 70
     2
  0
LTYPE
  5
14
330
5
100
AcDbSymbolTableRecord
100
AcDbLinetypeTableRecord
  2
BYBLOCK
 70
     0
  3

 72
    65
 73
     0
 40
0.0
  0
LTYPE
  5
15
330
5
100
AcDbSymbolTableRecord
100
AcDbLinetypeTableRecord
  2
BYLAYER
 70
     0
  3

 72
    65
 73
     0
 40
0.0
  0
LTYPE
  5
16
330
5
100
AcDbSymbolTableRecord
100
AcDbLinetypeTableRecord
  2
CONTINUOUS
 70
     0
  3
Solid line
 72
    65
 73
     0
 40
0.0
  0
LTYPE
  5
6E
330
5
100
AcDbSymbolTableRecord
100
AcDbLinetypeTableRecord
  2
CENTER
 70
     0
  3
____ _ ____ _ ____ _ ____ _ ____ _ ____ _ ____ 
 72
    65
 73
     4
 40
2.0
 49
1.25
 74
     0
 49
-0.25
 74
     0
 49
0.25
 74
     0
 49
-0.25
 74
     0
  0
ENDTAB
  0
TABLE
  2
LAYER
  5
2
330
0
100
AcDbSymbolTable
 70
     4
  0
LAYER
  5
F
330
2
100
AcDbSymbolTableRecord
100
AcDbLayerTableRecord
  2
0
 70
     0
 62
     7
  6
CONTINUOUS
  0
LAYER
  5
72
330
2
100
AcDbSymbolTableRecord
100
AcDbLayerTableRecord
  2
DEFPOINTS
 70
     0
 62
     7
  6
CONTINUOUS
  0
LAYER
  5
21C1
330
2
100
AcDbSymbolTableRecord
100
AcDbLayerTableRecord
  2
CENTER
 70
     0
 62
     9
  6
CENTER
  0
LAYER
  5
21C2
330
2
100
AcDbSymbolTableRecord
100
AcDbLayerTableRecord
  2
1
 70
     0
 62
     7
  6
CONTINUOUS
  0
ENDTAB
  0
TABLE
  2
STYLE
  5
3
330
0
100
AcDbSymbolTable
 70
     2
  0
STYLE
  5
10
330
3
100
AcDbSymbolTableRecord
100
AcDbTextStyleTableRecord
  2
STANDARD
 70
     0
 40
0.0
 41
0.8
 50
0.0
 71
     0
 42
84.17508417508416
  3
TXT
  4
bigfont.shx
  0
STYLE
  5
63
330
3
100
AcDbSymbolTableRecord
100
AcDbTextStyleTableRecord
  2
AD-STANDARD
 70
     0
 40
0.0
 41
0.8
 50
0.0
 71
     0
 42
3.5
  3
C:\Program Files\AutoCAD LT\romans.shx
  4
bigfont.shx
  0
ENDTAB
  0
TABLE
  2
VIEW
  5
6
330
0
100
AcDbSymbolTable
 70
     0
  0
ENDTAB
  0
TABLE
  2
UCS
  5
7
330
0
100
AcDbSymbolTable
 70
     0
  0
ENDTAB
  0
TABLE
  2
APPID
  5
9
330
0
100
AcDbSymbolTable
 70
     5
  0
APPID
  5
11
330
9
100
AcDbSymbolTableRecord
100
AcDbRegAppTableRecord
  2
ACAD
 70
     0
  0
APPID
  5
22A
330
9
100
AcDbSymbolTableRecord
100
AcDbRegAppTableRecord
  2
CONTENTTABDATA
 70
     0
  0
APPID
  5
22B
330
9
100
AcDbSymbolTableRecord
100
AcDbRegAppTableRecord
  2
CONTENTCURRENTTAB
 70
     0
  0
APPID
  5
232
330
9
100
AcDbSymbolTableRecord
100
AcDbRegAppTableRecord
  2
CONTENTBLOCKDESCRIPTION
 70
     0
  0
APPID
  5
233
330
9
100
AcDbSymbolTableRecord
100
AcDbRegAppTableRecord
  2
CONTENTBLOCKICON
 70
     0
  0
ENDTAB
  0
TABLE
  2
DIMSTYLE
  5
A
330
0
100
AcDbSymbolTable
 70
     1
  0
DIMSTYLE
105
1D
330
A
100
AcDbSymbolTableRecord
100
AcDbDimStyleTableRecord
  2
STANDARD
 70
     0
  3

  4

  5

  6

  7

 40
1.0
 41
0.18
 42
0.0625
 43
0.38
 44
0.18
 45
0.0
 46
0.0
 47
0.0
 48
0.0
140
0.18
141
0.09
142
0.0
143
25.4
144
1.0
145
0.0
146
1.0
147
0.09
 71
     0
 72
     0
 73
     1
 74
     1
 75
     0
 76
     0
 77
     0
 78
     0
170
     0
171
     2
172
     0
173
     0
174
     0
175
     0
176
     0
177
     0
178
     0
270
     2
271
     4
272
     4
273
     2
274
     2
340
10
275
     0
280
     0
281
     0
282
     0
283
     1
284
     0
285
     0
286
     0
287
     3
288
     0
  0
ENDTAB
  0
TABLE
  2
BLOCK_RECORD
  5
1
330
0
100
AcDbSymbolTable
 70
     0
  0
BLOCK_RECORD
  5
1A
102
{ACAD_XDICTIONARY
360
1439
102
}
330
1
100
AcDbSymbolTableRecord
100
AcDbBlockTableRecord
  2
*MODEL_SPACE
  0
BLOCK_RECORD
  5
1402
102
{ACAD_XDICTIONARY
360
1415
102
}
330
1
100
AcDbSymbolTableRecord
100
AcDbBlockTableRecord
  2
*PAPER_SPACE
  0
ENDTAB
  0
ENDSEC
  0
SECTION
  2
BLOCKS
  0
BLOCK
  5
1B
330
1A
100
AcDbEntity
  8
0
100
AcDbBlockBegin
  2
*MODEL_SPACE
 70
     0
 10
0.0
 20
0.0
 30
0.0
  3
*MODEL_SPACE
  1

  0
ENDBLK
  5
1C
330
1A
100
AcDbEntity
  8
0
100
AcDbBlockEnd
  0
BLOCK
  5
140F
330
1402
100
AcDbEntity
 67
     1
  8
0
100
AcDbBlockBegin
  2
*PAPER_SPACE
 70
     0
 10
0.0
 20
0.0
 30
0.0
  3
*PAPER_SPACE
  1

  0
ENDBLK
  5
1410
330
1402
100
AcDbEntity
 67
     1
  8
0
100
AcDbBlockEnd
  0
ENDSEC
  0
SECTION
  2
ENTITIES
  0
CIRCLE
  5
1A8B
330
1A
100
AcDbEntity
  8
1
100
AcDbCircle
 10
597.1020039487816
 20
149.477608456101
 30
0.0
 40
4.0
  0
CIRCLE
  5
1A8C
330
1A
100
AcDbEntity
  8
1
100
AcDbCircle
 10
597.1020039487816
 20
149.477608456101
 30
0.0
 40
3.5
  0
CIRCLE
  5
1A8D
330
1A
100
AcDbEntity
  8
1
100
AcDbCircle
 10
597.1020038888114
 20
129.477608456101
 30
0.0
 40
3.5
  0
CIRCLE
  5
1A8E
330
1A
100
AcDbEntity
  8
1
100
AcDbCircle
 10
597.1020038888114
 20
129.477608456101
 30
0.0
 40
4.0
  0
LINE
  5
1A8F
330
1A
100
AcDbEntity
  8
1
100
AcDbLine
 10
571.102004644857
 20
61.47760845610105
 30
0.0
 11
603.1020036308505
 21
61.47760845610105
 31
0.0
  0
LINE
  5
1A90
330
1A
100
AcDbEntity
  8
1
100
AcDbLine
 10
453.1020039487816
 20
159.477608456101
 30
0.0
 11
603.1020039487816
 21
159.477608456101
 31
0.0
  0
LINE
  5
1A91
330
1A
100
AcDbEntity
  8
1
100
AcDbLine
 10
603.102003791359
 20
119.477608456101
 30
0.0
 11
453.102003791359
 21
119.477608456101
 31
0.0
  0
LINE
  5
1A92
330
1A
100
AcDbEntity
  8
1
100
AcDbLine
 10
603.1020034209546
 20
27.47760845610105
 30
0.0
 11
561.6020040506432
 21
27.47760845610196
 31
0.0
  0
LINE
  5
1A95
330
1A
100
AcDbEntity
  8
CENTER
  6
CENTER
 62
     9
100
AcDbLine
 10
592.6020035184069
 20
129.477608456101
 30
0.0
 11
601.602003518407
 21
129.477608456101
 31
0.0
  0
LINE
  5
1A96
330
1A
100
AcDbEntity
  8
CENTER
  6
CENTER
 62
     9
100
AcDbLine
 10
592.6020035783771
 20
149.477608456101
 30
0.0
 11
601.6020035783772
 21
149.477608456101
 31
0.0
  0
LINE
  5
1AA0
330
1A
100
AcDbEntity
  8
1
100
AcDbLine
 10
504.6020029433934
 20
53.97760845610434
 30
0.0
 11
504.6020029433925
 21
34.97760845610343
 31
0.0
  0
LINE
  5
1AA3
330
1A
100
AcDbEntity
  8
1
100
AcDbLine
 10
479.6020029433934
 20
53.97760845610434
 30
0.0
 11
479.6020029433925
 21
34.97760845610434
 31
0.0
  0
ARC
  5
1AA4
330
1A
100
AcDbEntity
  8
1
100
AcDbCircle
 10
543.1020040269008
 20
45.97760874102755
 30
0.0
 40
8.0
100
AcDbArc
 50
349.1930782134797
 51
154.0555224969788
  0
ARC
  5
1AA5
330
1A
100
AcDbEntity
  8
1
100
AcDbCircle
 10
513.1020034209545
 20
45.97760845610105
 30
0.0
 40
8.0
100
AcDbArc
 50
25.94447977237156
 51
190.80692287486
  0
LINE
  5
1AA6
330
1A
100
AcDbEntity
  8
1
100
AcDbLine
 10
453.1020034359467
 20
27.47760845610105
 30
0.0
 11
453.1020036308505
 21
61.47760845610105
 31
0.0
  0
LINE
  5
1AA9
330
1A
100
AcDbEntity
  8
1
100
AcDbLine
 10
485.102004644857
 20
27.47760845610014
 30
0.0
 11
453.1020034209546
 21
27.47760845610105
 31
0.0
  0
LINE
  5
1AAB
330
1A
100
AcDbEntity
  8
1
100
AcDbLine
 10
557.6020040506432
 20
29.47760845610105
 30
0.0
 11
498.6020052390708
 21
29.47760845610105
 31
0.0
  0
LINE
  5
1AAC
330
1A
100
AcDbEntity
  8
1
100
AcDbLine
 10
535.9082569375437
 20
39.47760845610105
 30
0.0
 11
520.2957507059241
 21
39.47760845610105
 31
0.0
  0
LINE
  5
1AAD
330
1A
100
AcDbEntity
  8
1
100
AcDbLine
 10
520.2957507059241
 20
49.47760845610105
 30
0.0
 11
535.9082566033053
 21
49.47760845610014
 31
0.0
  0
LINE
  5
1AAE
330
1A
100
AcDbEntity
  8
1
100
AcDbLine
 10
494.6020052390708
 20
27.47760845610102
 30
0.0
 11
561.6020040506425
 21
27.47760845610196
 31
0.0
  0
LINE
  5
1AAF
330
1A
100
AcDbEntity
  8
1
100
AcDbLine
 10
502.6020029433925
 20
32.97760845610344
 30
0.0
 11
481.6020029433925
 21
32.97760845610435
 31
0.0
  0
ARC
  5
1AB1
330
1A
100
AcDbEntity
  8
1
100
AcDbCircle
 10
498.6020052390708
 20
24.47760845610105
 30
0.0
 40
5.0
100
AcDbArc
 50
90.0
 51
143.1301023541566
  0
LINE
  5
1AB2
330
1A
100
AcDbEntity
  8
1
100
AcDbLine
 10
494.6020046448571
 20
27.47760845610105
 30
0.0
 11
493.102004644857
 21
27.47760845610105
 31
0.0
  0
ARC
  5
1AB3
330
1A
100
AcDbEntity
  8
1
100
AcDbCircle
 10
498.6020052390708
 20
24.47760845610105
 30
0.0
 40
5.0
100
AcDbArc
 50
90.0
 51
143.1301023541566
  0
ARC
  5
1AB4
330
1A
100
AcDbEntity
  8
1
100
AcDbCircle
 10
489.102004644857
 20
28.47760845610105
 30
0.0
 40
4.0
100
AcDbArc
 50
0.0
 51
180.0
  0
LINE
  5
1AB5
330
1A
100
AcDbEntity
  8
1
100
AcDbLine
 10
485.102004644857
 20
28.47760845610105
 30
0.0
 11
485.102004644857
 21
27.47760845610105
 31
0.0
  0
ARC
  5
1AB7
330
1A
100
AcDbEntity
  8
1
100
AcDbCircle
 10
481.6020029433935
 20
34.97760845610469
 30
0.0
 40
2.0
100
AcDbArc
 50
180.0
 51
270.0
  0
LINE
  5
1AB8
330
1A
100
AcDbEntity
  8
1
100
AcDbLine
 10
493.102004644857
 20
28.47760845610105
 30
0.0
 11
493.102004644857
 21
27.47760845610105
 31
0.0
  0
ARC
  5
1AB9
330
1A
100
AcDbEntity
  8
1
100
AcDbCircle
 10
513.1020034209545
 20
42.97760845610105
 30
0.0
 40
8.0
100
AcDbArc
 50
169.1930771251399
 51
334.0555202276371
  0
ARC
  5
1ABB
330
1A
100
AcDbEntity
  8
1
100
AcDbCircle
 10
502.6020029433935
 20
34.97760845610378
 30
0.0
 40
2.0
100
AcDbArc
 50
270.0
 51
359.9999999999983
  0
ARC
  5
1ABC
330
1A
100
AcDbEntity
  8
1
100
AcDbCircle
 10
557.6020040506432
 20
24.47760845610105
 30
0.0
 40
5.0
100
AcDbArc
 50
36.86989764584337
 51
90.0
  0
ARC
  5
1ABD
330
1A
100
AcDbEntity
  8
1
100
AcDbCircle
 10
543.1020040838862
 20
42.97760874102755
 30
0.0
 40
8.0
100
AcDbArc
 50
205.944482041716
 51
10.80692396319822
  0
LINE
  5
1ABF
330
1A
100
AcDbEntity
  8
1
100
AcDbLine
 10
482.4520029686669
 20
160.9776086491567
 30
0.0
 11
435.1020029686684
 21
160.9776086491567
 31
0.0
  0
LINE
  5
1AC0
330
1A
100
AcDbEntity
  8
1
100
AcDbLine
 10
465.3520029686712
 20
164.4776086491567
 30
0.0
 11
435.1020029686684
 21
164.4776086491567
 31
0.0
  0
CIRCLE
  5
1AC1
330
1A
100
AcDbEntity
  8
1
100
AcDbCircle
 10
459.1020036339364
 20
129.477608456101
 30
0.0
 40
3.5
  0
CIRCLE
  5
1AC2
330
1A
100
AcDbEntity
  8
1
100
AcDbCircle
 10
459.1020036939067
 20
149.477608456101
 30
0.0
 40
3.5
  0
LINE
  5
1AC3
330
1A
100
AcDbEntity
  8
1
100
AcDbLine
 10
453.1020036308505
 20
61.47760845610105
 30
0.0
 11
494.602005239069
 21
61.47760845610287
 31
0.0
  0
LINE
  5
1AC8
330
1A
100
AcDbEntity
  8
CENTER
  6
CENTER
 62
     9
100
AcDbLine
 10
454.6020033235022
 20
149.477608456101
 30
0.0
 11
463.6020033235022
 21
149.477608456101
 31
0.0
  0
LINE
  5
1AC9
330
1A
100
AcDbEntity
  8
CENTER
  6
CENTER
 62
     9
100
AcDbLine
 10
454.6020032635319
 20
129.477608456101
 30
0.0
 11
463.6020032635319
 21
129.477608456101
 31
0.0
  0
LINE
  5
1ACA
330
1A
100
AcDbEntity
  8
1
100
AcDbLine
 10
453.102003791359
 20
119.477608456101
 30
0.0
 11
453.1020039487816
 21
159.477608456101
 31
0.0
  0
LINE
  5
1ACB
330
1A
100
AcDbEntity
  8
CENTER
  6
CENTER
 62
     9
100
AcDbLine
 10
459.1020033235022
 20
144.977608456101
 30
0.0
 11
459.1020033235022
 21
153.977608456101
 31
0.0
  0
LINE
  5
1ACC
330
1A
100
AcDbEntity
  8
CENTER
  6
CENTER
 62
     9
100
AcDbLine
 10
459.1020032635319
 20
124.977608456101
 30
0.0
 11
459.1020032635319
 21
133.977608456101
 31
0.0
  0
LINE
  5
1ACE
330
1A
100
AcDbEntity
  8
1
100
AcDbLine
 10
498.6020052390708
 20
59.47760845610105
 30
0.0
 11
557.6020020320334
 21
59.47760845610014
 31
0.0
  0
LINE
  5
1ACF
330
1A
100
AcDbEntity
  8
1
100
AcDbLine
 10
494.6020052390708
 20
61.47760845610108
 30
0.0
 11
561.6020040506432
 21
61.47760845610108
 31
0.0
  0
LINE
  5
1AD0
330
1A
100
AcDbEntity
  8
1
100
AcDbLine
 10
494.6020058285871
 20
119.4776094966021
 30
0.0
 11
494.6020073102068
 21
159.4776094966021
 31
0.0
  0
LINE
  5
1AD1
330
1A
100
AcDbEntity
  8
1
100
AcDbLine
 10
480.6020029433925
 20
112.9776084561009
 30
0.0
 11
503.6020029433935
 21
112.977608456101
 31
0.0
  0
LINE
  5
1AD2
330
1A
100
AcDbEntity
  8
1
100
AcDbLine
 10
479.6020029433925
 20
119.4776084561009
 30
0.0
 11
494.6020029433935
 21
119.477608456101
 31
0.0
  0
ARC
  5
1AD3
330
1A
100
AcDbEntity
  8
1
100
AcDbCircle
 10
498.6020052390708
 20
64.47760845610105
 30
0.0
 40
5.0
100
AcDbArc
 50
216.8698976458433
 51
270.0
  0
LINE
  5
1AD4
330
1A
100
AcDbEntity
  8
1
100
AcDbLine
 10
502.6020029433935
 20
55.97760845610435
 30
0.0
 11
481.6020029433935
 21
55.97760845610435
 31
0.0
  0
ARC
  5
1AD7
330
1A
100
AcDbEntity
  8
1
100
AcDbCircle
 10
481.6020029433935
 20
53.97760845610469
 30
0.0
 40
2.0
100
AcDbArc
 50
90.0
 51
180.0
  0
LINE
  5
1AD8
330
1A
100
AcDbEntity
  8
1
100
AcDbLine
 10
479.6020029433925
 20
113.9776084561009
 30
0.0
 11
479.6020029433925
 21
119.4776084561009
 31
0.0
  0
ARC
  5
1AD9
330
1A
100
AcDbEntity
  8
1
100
AcDbCircle
 10
480.6020029433925
 20
113.9776084561009
 30
0.0
 40
1.0
100
AcDbArc
 50
180.0
 51
270.0
  0
ARC
  5
1ADB
330
1A
100
AcDbEntity
  8
1
100
AcDbCircle
 10
502.6020029433935
 20
53.97760845610469
 30
0.0
 40
2.0
100
AcDbArc
 50
0.0
 51
90.0
  0
LINE
  5
1ADC
330
1A
100
AcDbEntity
  8
1
100
AcDbLine
 10
494.6020029433935
 20
119.1776084561011
 30
0.0
 11
504.0162165057668
 21
119.1776084561009
 31
0.0
  0
LINE
  5
1ADD
330
1A
100
AcDbEntity
  8
1
100
AcDbLine
 10
494.6020029433935
 20
119.4776084561009
 30
0.0
 11
494.6020029433935
 21
119.1776084561009
 31
0.0
  0
LINE
  5
1ADE
330
1A
100
AcDbEntity
  8
1
100
AcDbLine
 10
504.6020029433934
 20
119.4776084561009
 30
0.0
 11
504.6020029433934
 21
113.977608456101
 31
0.0
  0
ARC
  5
1ADF
330
1A
100
AcDbEntity
  8
1
100
AcDbCircle
 10
503.6020029433935
 20
113.977608456101
 30
0.0
 40
1.0
100
AcDbArc
 50
270.0
 51
0.0
  0
LINE
  5
1AE0
330
1A
100
AcDbEntity
  8
1
100
AcDbLine
 10
503.01413497775
 20
119.477608456101
 30
0.0
 11
504.6020029433934
 21
119.4776084561009
 31
0.0
  0
LINE
  5
1AE1
330
1A
100
AcDbEntity
  8
1
100
AcDbLine
 10
504.0162165057668
 20
119.1776084561009
 30
0.0
 11
504.0162165057668
 21
119.4776084561009
 31
0.0
  0
LINE
  5
1AE2
330
1A
100
AcDbEntity
  8
1
100
AcDbLine
 10
503.01413497775
 20
119.1776084561009
 30
0.0
 11
503.01413497775
 21
119.4776084561009
 31
0.0
  0
CIRCLE
  5
1AE3
330
1A
100
AcDbEntity
  8
1
100
AcDbCircle
 10
479.102003791359
 20
149.477608495082
 30
0.0
 40
3.5
  0
LINE
  5
1AE4
330
1A
100
AcDbEntity
  8
CENTER
  6
CENTER
 62
     9
100
AcDbLine
 10
479.1020034209545
 20
144.977608456101
 30
0.0
 11
479.1020034209545
 21
153.977608456101
 31
0.0
  0
CIRCLE
  5
1AE5
330
1A
100
AcDbEntity
  8
1
100
AcDbCircle
 10
479.1020037313887
 20
129.477608495082
 30
0.0
 40
3.5
  0
LINE
  5
1AE6
330
1A
100
AcDbEntity
  8
CENTER
  6
CENTER
 62
     9
100
AcDbLine
 10
474.6020033609843
 20
129.477608456101
 30
0.0
 11
483.6020033609843
 21
129.477608456101
 31
0.0
  0
LINE
  5
1AE7
330
1A
100
AcDbEntity
  8
CENTER
  6
CENTER
 62
     9
100
AcDbLine
 10
479.1020033609843
 20
124.977608456101
 30
0.0
 11
479.1020033609843
 21
133.977608456101
 31
0.0
  0
LINE
  5
1AE8
330
1A
100
AcDbEntity
  8
1
100
AcDbLine
 10
482.3520029686666
 20
164.4776086491567
 30
0.0
 11
474.8520029686739
 21
164.4776086491567
 31
0.0
  0
LINE
  5
1AE9
330
1A
100
AcDbEntity
  8
CENTER
  6
CENTER
 62
     9
100
AcDbLine
 10
474.6020034209545
 20
149.477608456101
 30
0.0
 11
483.6020034209545
 21
149.477608456101
 31
0.0
  0
LINE
  5
1AEA
330
1A
100
AcDbEntity
  8
1
100
AcDbLine
 10
474.8520029686739
 20
159.4776086491576
 30
0.0
 11
474.8520029686739
 21
162.4776086491567
 31
0.0
  0
LINE
  5
1AEB
330
1A
100
AcDbEntity
  8
1
100
AcDbLine
 10
465.3520029686712
 20
159.4776086491576
 30
0.0
 11
465.3520029686712
 21
162.4776086491567
 31
0.0
  0
LINE
  5
1AEC
330
1A
100
AcDbEntity
  8
1
100
AcDbLine
 10
472.2020029686688
 20
167.2776086491551
 30
0.0
 11
468.0020029686699
 21
167.2776086491542
 31
0.0
  0
LINE
  5
1AED
330
1A
100
AcDbEntity
  8
1
100
AcDbLine
 10
474.8520029686739
 20
162.4776086491567
 30
0.0
 11
465.3520029686702
 21
162.4776086491567
 31
0.0
  0
LINE
  5
1AEE
330
1A
100
AcDbEntity
  8
1
100
AcDbLine
 10
465.3520029686712
 20
160.9776086491567
 30
0.0
 11
474.8520029686739
 21
160.9776086491567
 31
0.0
  0
LINE
  5
1AEF
330
1A
100
AcDbEntity
  8
1
100
AcDbLine
 10
473.9020029686713
 20
164.2776086491569
 30
0.0
 11
466.302002968671
 21
164.277608649156
 31
0.0
  0
LINE
  5
1AF0
330
1A
100
AcDbEntity
  8
1
100
AcDbLine
 10
475.1020029686712
 20
163.2776086491569
 30
0.0
 11
465.1020029686702
 21
163.2776086491569
 31
0.0
  0
LINE
  5
1AF1
330
1A
100
AcDbEntity
  8
1
100
AcDbLine
 10
475.1020029686712
 20
162.4776086491567
 30
0.0
 11
465.1020029686702
 21
162.4776086491567
 31
0.0
  0
LINE
  5
1AF2
330
1A
100
AcDbEntity
  8
1
100
AcDbLine
 10
463.3520032211568
 20
160.9776086491567
 30
0.0
 11
472.8520032211595
 21
160.9776086491567
 31
0.0
  0
ARC
  5
1AF3
330
1A
100
AcDbEntity
  8
1
100
AcDbCircle
 10
468.0020029686699
 20
165.5776086491544
 30
0.0
 40
1.7
100
AcDbArc
 50
90.00000000000651
 51
180.0
  0
LINE
  5
1AF4
330
1A
100
AcDbEntity
  8
1
100
AcDbLine
 10
466.3497318044853
 20
165.9776086491576
 30
0.0
 11
465.3520029686702
 21
165.9776086491576
 31
0.0
  0
LINE
  5
1AF5
330
1A
100
AcDbEntity
  8
1
100
AcDbLine
 10
465.1020029686702
 20
163.2776086491569
 30
0.0
 11
465.1020029686702
 21
162.4776086491567
 31
0.0
  0
LINE
  5
1AF6
330
1A
100
AcDbEntity
  8
1
100
AcDbLine
 10
465.3520029686712
 20
163.2776086491569
 30
0.0
 11
465.3520029686712
 21
165.9776086491585
 31
0.0
  0
LINE
  5
1AF7
330
1A
100
AcDbEntity
  8
1
100
AcDbLine
 10
466.302002968671
 20
165.5776086491544
 30
0.0
 11
466.302002968671
 21
163.277608649156
 31
0.0
  0
ARC
  5
1AF8
330
1A
100
AcDbEntity
  8
1
100
AcDbCircle
 10
472.2020029686706
 20
165.5776086491553
 30
0.0
 40
1.7
100
AcDbArc
 50
0.0000000000195413
 51
90.00000000002605
  0
LINE
  5
1AF9
330
1A
100
AcDbEntity
  8
1
100
AcDbLine
 10
474.8520029686739
 20
165.9776086491576
 30
0.0
 11
473.8542741328553
 21
165.9776086491576
 31
0.0
  0
LINE
  5
1AFA
330
1A
100
AcDbEntity
  8
1
100
AcDbLine
 10
473.9020029686695
 20
165.5776086491562
 30
0.0
 11
473.9020029686713
 21
163.2776086491569
 31
0.0
  0
LINE
  5
1AFB
330
1A
100
AcDbEntity
  8
1
100
AcDbLine
 10
475.1020029686702
 20
163.2776086491569
 30
0.0
 11
475.1020029686702
 21
162.4776086491567
 31
0.0
  0
LINE
  5
1AFC
330
1A
100
AcDbEntity
  8
1
100
AcDbLine
 10
474.8520029686739
 20
163.2776086491569
 30
0.0
 11
474.8520029686739
 21
165.9776086491585
 31
0.0
  0
ARC
  5
1AFD
330
1A
100
AcDbEntity
  8
1
100
AcDbCircle
 10
482.3520029686666
 20
159.4776086491567
 30
0.0
 40
5.0
100
AcDbArc
 50
0.0
 51
90.0
  0
ARC
  5
1AFE
330
1A
100
AcDbEntity
  8
1
100
AcDbCircle
 10
482.4520029686669
 20
159.5776086491571
 30
0.0
 40
1.399999999999999
100
AcDbArc
 50
355.9039483206872
 51
90.0
  0
LINE
  5
1AFF
330
1A
100
AcDbEntity
  8
1
100
AcDbLine
 10
485.3520032211522
 20
159.4776086491585
 30
0.0
 11
485.3520032211522
 21
159.4776086491567
 31
0.0
  0
LINE
  5
1B00
330
1A
100
AcDbEntity
  8
1
100
AcDbLine
 10
487.3520029686666
 20
159.4776086491585
 30
0.0
 11
487.3520029686666
 21
159.4776086491567
 31
0.0
  0
LINE
  5
1B01
330
1A
100
AcDbEntity
  8
1
100
AcDbLine
 10
571.1020039487817
 20
159.477608456101
 30
0.0
 11
571.1020039487817
 21
119.477608456101
 31
0.0
  0
LINE
  5
1B02
330
1A
100
AcDbEntity
  8
1
100
AcDbLine
 10
561.6020044210476
 20
119.477608456101
 30
0.0
 11
561.6020044210476
 21
159.477608456101
 31
0.0
  0
LINE
  5
1B03
330
1A
100
AcDbEntity
  8
1
100
AcDbLine
 10
563.1020039487816
 20
159.477608456101
 30
0.0
 11
563.1020039487816
 21
119.477608456101
 31
0.0
  0
ARC
  5
1B04
330
1A
100
AcDbEntity
  8
1
100
AcDbCircle
 10
557.6020040506432
 20
64.47760845610105
 30
0.0
 40
5.0
100
AcDbArc
 50
270.0
 51
323.1301023541566
  0
ARC
  5
1B05
330
1A
100
AcDbEntity
  8
1
100
AcDbCircle
 10
567.102004644857
 20
60.47760845610105
 30
0.0
 40
4.0
100
AcDbArc
 50
180.0
 51
0.0
  0
LINE
  5
1B06
330
1A
100
AcDbEntity
  8
1
100
AcDbLine
 10
561.6020046448571
 20
61.47760845610105
 30
0.0
 11
563.102004644857
 21
61.47760845610105
 31
0.0
  0
LINE
  5
1B07
330
1A
100
AcDbEntity
  8
1
100
AcDbLine
 10
563.102004644857
 20
60.47760845610105
 30
0.0
 11
563.102004644857
 21
61.47760845610105
 31
0.0
  0
LINE
  5
1B08
330
1A
100
AcDbEntity
  8
1
100
AcDbLine
 10
571.102004644857
 20
60.47760845610105
 30
0.0
 11
571.102004644857
 21
61.47760845610105
 31
0.0
  0
CIRCLE
  5
1B09
330
1A
100
AcDbEntity
  8
1
100
AcDbCircle
 10
577.1020038513293
 20
149.477608456101
 30
0.0
 40
4.0
  0
CIRCLE
  5
1B0A
330
1A
100
AcDbEntity
  8
1
100
AcDbCircle
 10
577.1020038513293
 20
149.477608456101
 30
0.0
 40
3.5
  0
LINE
  5
1B0B
330
1A
100
AcDbEntity
  8
CENTER
  6
CENTER
 62
     9
100
AcDbLine
 10
577.1020034809248
 20
144.977608456101
 30
0.0
 11
577.1020034809248
 21
153.977608456101
 31
0.0
  0
CIRCLE
  5
1B0C
330
1A
100
AcDbEntity
  8
1
100
AcDbCircle
 10
577.102003791359
 20
129.477608456101
 30
0.0
 40
3.5
  0
CIRCLE
  5
1B0D
330
1A
100
AcDbEntity
  8
1
100
AcDbCircle
 10
577.102003791359
 20
129.477608456101
 30
0.0
 40
4.0
  0
LINE
  5
1B0E
330
1A
100
AcDbEntity
  8
CENTER
  6
CENTER
 62
     9
100
AcDbLine
 10
572.6020034209546
 20
129.477608456101
 30
0.0
 11
581.6020034209546
 21
129.477608456101
 31
0.0
  0
LINE
  5
1B0F
330
1A
100
AcDbEntity
  8
CENTER
  6
CENTER
 62
     9
100
AcDbLine
 10
577.1020034209546
 20
124.977608456101
 30
0.0
 11
577.1020034209546
 21
133.977608456101
 31
0.0
  0
LINE
  5
1B10
330
1A
100
AcDbEntity
  8
CENTER
  6
CENTER
 62
     9
100
AcDbLine
 10
572.6020034809248
 20
149.477608456101
 30
0.0
 11
581.6020034809248
 21
149.477608456101
 31
0.0
  0
LINE
  5
1B11
330
1A
100
AcDbEntity
  8
1
100
AcDbLine
 10
603.1020036308505
 20
61.47760845610105
 30
0.0
 11
603.1020034209546
 21
27.47760845610105
 31
0.0
  0
LINE
  5
1B13
330
1A
100
AcDbEntity
  8
1
100
AcDbLine
 10
684.6020036308504
 20
60.97760817829653
 30
0.0
 11
684.6020036308495
 21
43.72760817829744
 31
0.0
  0
LINE
  5
1B14
330
1A
100
AcDbEntity
  8
1
100
AcDbLine
 10
686.1020036308495
 20
50.47760817829654
 30
0.0
 11
686.1020036308495
 21
60.47760817829654
 31
0.0
  0
LINE
  5
1B15
330
1A
100
AcDbEntity
  8
1
100
AcDbLine
 10
686.9020036308507
 20
50.47760817829654
 30
0.0
 11
686.9020036308507
 21
60.47760817829654
 31
0.0
  0
LINE
  5
1B16
330
1A
100
AcDbEntity
  8
1
100
AcDbLine
 10
686.1020036308505
 20
60.97760817829653
 30
0.0
 11
686.1020036308495
 21
48.46047200452535
 31
0.0
  0
LINE
  5
1B18
330
1A
100
AcDbEntity
  8
1
100
AcDbLine
 10
643.1020036308504
 20
61.47760817829745
 30
0.0
 11
643.1020034209545
 21
27.47760817829743
 31
0.0
  0
LINE
  5
1B19
330
1A
100
AcDbEntity
  8
1
100
AcDbLine
 10
683.1020036308505
 20
61.47760817829745
 30
0.0
 11
683.1020036308505
 21
27.47760817829743
 31
0.0
  0
LINE
  5
1B1A
330
1A
100
AcDbEntity
  8
1
100
AcDbLine
 10
636.6020046448571
 20
54.47760848696721
 30
0.0
 11
636.6020046448571
 21
34.47760848696722
 31
0.0
  0
LINE
  5
1B1D
330
1A
100
AcDbEntity
  8
1
100
AcDbLine
 10
683.1020036308505
 20
27.47760817829743
 30
0.0
 11
643.1020036308504
 21
27.47760817829743
 31
0.0
  0
LINE
  5
1B22
330
1A
100
AcDbEntity
  8
1
100
AcDbLine
 10
643.102004644857
 20
33.47760848696721
 30
0.0
 11
637.602004644857
 21
33.47760848696722
 31
0.0
  0
ARC
  5
1B23
330
1A
100
AcDbEntity
  8
1
100
AcDbCircle
 10
637.602004644857
 20
34.47760848696722
 30
0.0
 40
1.0
100
AcDbArc
 50
180.0
 51
270.0
  0
ARC
  5
1B28
330
1A
100
AcDbEntity
  8
1
100
AcDbCircle
 10
687.6020036308496
 20
48.31018387325362
 30
0.0
 40
3.0
100
AcDbArc
 50
180.0
 51
254.7424767095481
  0
ARC
  5
1B29
330
1A
100
AcDbEntity
  8
1
100
AcDbCircle
 10
686.3520036308496
 20
43.72760817829744
 30
0.0
 40
3.25
100
AcDbArc
 50
180.0
 51
72.96658983303558
  0
CIRCLE
  5
1B2A
330
1A
100
AcDbEntity
  8
1
100
AcDbCircle
 10
686.3520036308496
 20
43.72760817829744
 30
0.0
 40
1.75
  0
ARC
  5
1B2B
330
1A
100
AcDbEntity
  8
1
100
AcDbCircle
 10
687.8020036308503
 20
48.46047200452535
 30
0.0
 40
1.7
100
AcDbArc
 50
180.0
 51
252.9665898330285
  0
LINE
  5
1B2C
330
1A
100
AcDbEntity
  8
1
100
AcDbLine
 10
686.9020036308507
 20
50.47760817829654
 30
0.0
 11
686.1020036308495
 21
50.47760817829654
 31
0.0
  0
LINE
  5
1B2F
330
1A
100
AcDbEntity
  8
1
100
AcDbLine
 10
643.1020036308504
 20
61.47760817829745
 30
0.0
 11
683.1020036308505
 21
61.47760817829745
 31
0.0
  0
LINE
  5
1B30
330
1A
100
AcDbEntity
  8
1
100
AcDbLine
 10
603.1020039487816
 20
159.477608456101
 30
0.0
 11
603.102003791359
 21
119.477608456101
 31
0.0
  0
LINE
  5
1B32
330
1A
100
AcDbEntity
  8
1
100
AcDbLine
 10
643.102004644857
 20
55.47760848696722
 30
0.0
 11
637.602004644857
 21
55.47760848696722
 31
0.0
  0
ARC
  5
1B33
330
1A
100
AcDbEntity
  8
1
100
AcDbCircle
 10
637.602004644857
 20
54.47760848696721
 30
0.0
 40
1.0
100
AcDbArc
 50
90.0
 51
180.0
  0
LINE
  5
1B35
330
1A
100
AcDbEntity
  8
CENTER
  6
CENTER
 62
     9
100
AcDbLine
 10
597.1020035783772
 20
144.977608456101
 30
0.0
 11
597.1020035783772
 21
153.977608456101
 31
0.0
  0
LINE
  5
1B36
330
1A
100
AcDbEntity
  8
CENTER
  6
CENTER
 62
     9
100
AcDbLine
 10
597.1020035184069
 20
124.977608456101
 30
0.0
 11
597.1020035184069
 21
133.977608456101
 31
0.0
  0
LINE
  5
1B37
330
1A
100
AcDbEntity
  8
1
100
AcDbLine
 10
686.1020036308505
 20
60.97760817829653
 30
0.0
 11
683.1020036308505
 21
60.97760817829653
 31
0.0
  0
LINE
  5
1B38
330
1A
100
AcDbEntity
  8
1
100
AcDbLine
 10
690.9020036308488
 20
53.37760817829799
 30
0.0
 11
690.902003630847
 21
57.5776081782978
 31
0.0
  0
LINE
  5
1B39
330
1A
100
AcDbEntity
  8
1
100
AcDbLine
 10
687.9020036308507
 20
51.67760817829726
 30
0.0
 11
687.9020036308489
 21
59.27760817829763
 31
0.0
  0
LINE
  5
1B3A
330
1A
100
AcDbEntity
  8
1
100
AcDbLine
 10
689.2020036308499
 20
51.67760817829726
 30
0.0
 11
686.9020036308507
 21
51.67760817829726
 31
0.0
  0
ARC
  5
1B3B
330
1A
100
AcDbEntity
  8
1
100
AcDbCircle
 10
689.2020036308481
 20
53.37760817829799
 30
0.0
 40
1.7
100
AcDbArc
 50
270.0000000000195
 51
0.0000000000260551
  0
LINE
  5
1B3C
330
1A
100
AcDbEntity
  8
1
100
AcDbLine
 10
689.2020036308481
 20
59.27760817829763
 30
0.0
 11
686.9020036308488
 21
59.27760817829763
 31
0.0
  0
LINE
  5
1B3D
330
1A
100
AcDbEntity
  8
1
100
AcDbLine
 10
686.9020036308507
 20
60.47760817829654
 30
0.0
 11
686.1020036308495
 21
60.47760817829654
 31
0.0
  0
ARC
  5
1B3E
330
1A
100
AcDbEntity
  8
1
100
AcDbCircle
 10
689.2020036308472
 20
57.5776081782969
 30
0.0
 40
1.7
100
AcDbArc
 50
0.0000000000081422
 51
90.0
  0
LINE
  5
1D1F
330
1A
100
AcDbEntity
  8
1
100
AcDbLine
 10
495.102001611136
 20
55.97760845610378
 30
0.0
 11
498.6020011938367
 21
59.47760798370769
 31
0.0
  0
LINE
  5
1D20
330
1A
100
AcDbEntity
  8
1
100
AcDbLine
 10
503.7439437904704
 20
55.61954971625278
 30
0.0
 11
507.602001479594
 21
59.47760740537728
 31
0.0
  0
LINE
  5
1D21
330
1A
100
AcDbEntity
  8
1
100
AcDbLine
 10
498.6020011938367
 20
29.47760892849442
 30
0.0
 11
495.1020016111288
 21
32.97760845610378
 31
0.0
  0
LINE
  5
1D22
330
1A
100
AcDbEntity
  8
1
100
AcDbLine
 10
503.743943080884
 20
33.33566670245113
 30
0.0
 11
507.602001479594
 21
29.47760830373977
 31
0.0
  0
LINE
  5
1EDA
330
1A
100
AcDbEntity
  8
CENTER
  6
CENTER
 62
     9
 48
4.0
100
AcDbLine
 10
443.4350635597936
 20
139.477608456101
 30
0.0
 11
610.6408833734899
 21
139.477608456101
 31
0.0
  0
LINE
  5
21C3
330
1A
100
AcDbEntity
  8
1
100
AcDbLine
 10
453.1020035290992
 20
45.47760817829742
 30
0.0
 11
435.9563451480942
 21
45.47760817829742
 31
0.0
  0
LINE
  5
21C4
330
1A
100
AcDbEntity
  8
1
100
AcDbLine
 10
453.1020035190675
 20
41.97760817829743
 30
0.0
 11
435.9563451480942
 21
41.97760817829743
 31
0.0
  0
VIEWPORT
  5
1403
330
1402
100
AcDbEntity
 67
     1
  8
0
100
AcDbViewport
 10
204.7755767083365
 20
139.3826925541743
 30
0.0
 40
526.3782071071091
 41
328.5591244037068
 68
     1
 69
     1
1001
ACAD
1000
MVIEW
1002
{
1070
    16
1010
0.0
1020
0.0
1030
0.0
1010
0.0
1020
0.0
1030
1.0
1040
0.0
1040
328.5591244037068
1040
204.7755767083365
1040
139.3826925541743
1040
50.0
1040
0.0
1040
0.0
1070
     0
1070
   100
1070
     1
1070
     0
1070
     0
1070
     0
1070
     0
1070
     0
1040
0.0
1040
0.0
1040
0.0
1040
1.0
1040
1.0
1040
10.0
1040
10.0
1070
     0
1002
{
1002
}
1002
}
  0
VIEWPORT
  5
1404
330
1402
100
AcDbEntity
 67
     1
  8
DEFPOINTS
100
AcDbViewport
 10
212.5
 20
144.4999999999999
 30
0.0
 40
385.0
 41
264.9999999999999
 68
     3
 69
     2
1001
ACAD
1000
MVIEW
1002
{
1070
    16
1010
0.0
1020
0.0
1030
0.0
1010
0.0
1020
0.0
1030
1.0
1040
0.0
1040
264.9999992130324
1040
5019.315866855221
1040
4989.452661023262
1040
50.0
1040
0.0
1040
0.0
1070
     0
1070
   100
1070
     1
1070
     0
1070
     0
1070
     0
1070
     0
1070
     1
1040
0.0
1040
0.0
1040
0.0
1040
168.0
1040
168.0
1040
0.0
1040
0.0
1070
     0
1002
{
1002
}
1002
}
  0
VIEWPORT
  5
1462
330
1402
100
AcDbEntity
 67
     1
  8
DEFPOINTS
100
AcDbViewport
 10
212.4999999999999
 20
144.4999999999999
 30
0.0
 40
384.9999999999998
 41
264.9999999999999
 68
     2
 69
     3
1001
ACAD
1000
MVIEW
1002
{
1070
    16
1010
0.0
1020
0.0
1030
0.0
1010
0.0
1020
0.0
1030
1.0
1040
0.0
1040
378.5714283170694
1040
682.0338290595075
1040
64.17600800404958
1040
50.0
1040
0.0
1040
0.0
1070
     0
1070
   100
1070
     1
1070
     0
1070
     0
1070
     0
1070
     0
1070
     1
1040
0.0
1040
0.0
1040
0.0
1040
168.0
1040
168.0
1040
0.0
1040
0.0
1070
     0
1002
{
1002
}
1002
}
  0
ENDSEC
  0
SECTION
  2
OBJECTS
  0
DICTIONARY
  5
C
330
0
100
AcDbDictionary
  3
ACAD_GROUP
350
D
  3
ACAD_LAYOUT
350
1384
  3
ACAD_MLINESTYLE
350
E
  3
ACAD_PLOTSETTINGS
350
1385
  3
ACAD_PLOTSTYLENAME
350
1382
  3
ACDBVARIABLEDICTIONARY
350
1044
  3
CONTENTDICTIONARY
350
234
  3
DWGPROPS
350
1E23
  3
ACDBHEADERROUNDTRIPXREC
350
2231
  0
DICTIONARY
  5
1439
330
1A
100
AcDbDictionary
280
     1
  3
ACAD_LAYOUTSELFREF
360
2251
  0
DICTIONARY
  5
1415
330
1402
100
AcDbDictionary
280
     1
  3
ACAD_LAYOUTSELFREF
360
2252
  0
DICTIONARY
  5
D
102
{ACAD_REACTORS
330
C
102
}
330
C
100
AcDbDictionary
  3
*A1
350
36C
  3
*A2
350
377
  3
*A3
350
419
  3
*A4
350
41A
  3
*A5
350
621
  3
*A6
350
630
  3
*A7
350
682
  3
*A8
350
84A
  0
DICTIONARY
  5
1384
102
{ACAD_REACTORS
330
C
102
}
330
C
100
AcDbDictionary
  0
DICTIONARY
  5
E
102
{ACAD_REACTORS
330
C
102
}
330
C
100
AcDbDictionary
  3
STANDARD
350
13
  0
DICTIONARY
  5
1385
102
{ACAD_REACTORS
330
C
102
}
330
C
100
AcDbDictionary
  0
ACDBDICTIONARYWDFLT
  5
1382
102
{ACAD_REACTORS
330
C
102
}
330
C
100
AcDbDictionary
281
     1
  3
Normal
350
1383
100
AcDbDictionaryWithDefault
340
1383
  0
DICTIONARY
  5
1044
102
{ACAD_REACTORS
330
C
102
}
330
C
100
AcDbDictionary
  3
SORTENTS
350
1045
  0
DICTIONARY
  5
234
102
{ACAD_REACTORS
330
C
102
}
330
C
100
AcDbDictionary
  0
XRECORD
  5
1E23
102
{ACAD_REACTORS
330
C
102
}
330
C
100
AcDbXrecord
  1
DWGPROPS COOKIE
  2

  3

  4

  6

  7

  8

  9

300
=
301
=
302
=
303
=
304
=
305
=
306
=
307
=
308
=
309
=
 40
0.2829800925925926
 41
2451430.616412153
 42
2451856.473544097
  1

 90
        0
  0
DICTIONARY
  5
2231
102
{ACAD_REACTORS
330
C
102
}
330
C
100
AcDbDictionary
  3
TSTACKALIGN
350
2232
  3
TSTACKSIZE
350
2233
  3
HYPERLINKBASE
350
2234
  3
STYLESHEET
350
2235
  3
LAYOUTDICT
350
2236
  3
PLOTSETDICT
350
2237
  3
PLOTSTYLNAMDICT
350
2238
  3
LWETCUNION
350
2239
  3
INSUNITS
350
223A
  3
CEPSNTYPE
350
223B
  3
FINGERPRINTGUID
350
223C
  3
VERSIONGUID
350
223D
  3
PSVPSCALE
350
223E
  3
PUCSORTHOREF
350
223F
  3
PUCSORTHOVIEW
350
2240
  3
PUCSBASE
350
2241
  3
PUCSORGTOP
350
2242
  3
PUCSORGBOTTOM
350
2243
  3
PUCSORGLEFT
350
2244
  3
PUCSORGRIGHT
350
2245
  3
PUCSORGFRONT
350
2246
  3
PUCSORGBACK
350
2247
  3
UCSORTHOREF
350
2248
  3
UCSORTHOVIEW
350
2249
  3
UCSBASE
350
224A
  3
UCSORGTOP
350
224B
  3
UCSORGBOTTOM
350
224C
  3
UCSORGLEFT
350
224D
  3
UCSORGRIGHT
350
224E
  3
UCSORGFRONT
350
224F
  3
UCSORGBACK
350
2250
  0
XRECORD
  5
2251
102
{ACAD_REACTORS
330
1439
102
}
330
1439
100
AcDbXrecord
340
1A
  0
XRECORD
  5
2252
102
{ACAD_REACTORS
330
1415
102
}
330
1415
100
AcDbXrecord
340
1402
  0
GROUP
  5
36C
102
{ACAD_REACTORS
330
D
102
}
330
D
100
AcDbGroup
300

 70
     1
 71
     1
  0
GROUP
  5
377
102
{ACAD_REACTORS
330
D
102
}
330
D
100
AcDbGroup
300

 70
     1
 71
     1
  0
GROUP
  5
419
102
{ACAD_REACTORS
330
D
102
}
330
D
100
AcDbGroup
300

 70
     1
 71
     1
  0
GROUP
  5
41A
102
{ACAD_REACTORS
330
D
102
}
330
D
100
AcDbGroup
300

 70
     1
 71
     1
  0
GROUP
  5
621
102
{ACAD_REACTORS
330
D
102
}
330
D
100
AcDbGroup
300

 70
     1
 71
     1
  0
GROUP
  5
630
102
{ACAD_REACTORS
330
D
102
}
330
D
100
AcDbGroup
300

 70
     1
 71
     1
  0
GROUP
  5
682
102
{ACAD_REACTORS
330
D
102
}
330
D
100
AcDbGroup
300

 70
     1
 71
     1
  0
GROUP
  5
84A
102
{ACAD_REACTORS
330
D
102
}
330
D
100
AcDbGroup
300

 70
     1
 71
     1
  0
MLINESTYLE
  5
13
102
{ACAD_REACTORS
330
E
102
}
330
E
100
AcDbMlineStyle
  2
STANDARD
 70
     0
  3

 62
     0
 51
90.0
 52
90.0
 71
     2
 49
0.5
 62
   256
  6
BYLAYER
 49
-0.5
 62
   256
  6
BYLAYER
  0
ACDBPLACEHOLDER
  5
1383
102
{ACAD_REACTORS
330
1382
102
}
330
1382
100
AcDbPlaceHolder
280
     0
  0
DICTIONARYVAR
  5
1045
102
{ACAD_REACTORS
330
1044
102
}
330
1044
100
DictionaryVariables
280
     0
  1
96
  0
XRECORD
  5
2232
102
{ACAD_REACTORS
330
2231
102
}
330
2231
100
AcDbXrecord
 90
        1
  0
XRECORD
  5
2233
102
{ACAD_REACTORS
330
2231
102
}
330
2231
100
AcDbXrecord
 90
       70
  0
XRECORD
  5
2234
102
{ACAD_REACTORS
330
2231
102
}
330
2231
100
AcDbXrecord
  1

  0
XRECORD
  5
2235
102
{ACAD_REACTORS
330
2231
102
}
330
2231
100
AcDbXrecord
  1

  0
XRECORD
  5
2236
102
{ACAD_REACTORS
330
2231
102
}
330
2231
100
AcDbXrecord
340
1384
  0
XRECORD
  5
2237
102
{ACAD_REACTORS
330
2231
102
}
330
2231
100
AcDbXrecord
340
1385
  0
XRECORD
  5
2238
102
{ACAD_REACTORS
330
2231
102
}
330
2231
100
AcDbXrecord
340
1382
  0
XRECORD
  5
2239
102
{ACAD_REACTORS
330
2231
102
}
330
2231
100
AcDbXrecord
 90
    14877
  0
XRECORD
  5
223A
102
{ACAD_REACTORS
330
2231
102
}
330
2231
100
AcDbXrecord
 90
        0
  0
XRECORD
  5
223B
102
{ACAD_REACTORS
330
2231
102
}
330
2231
100
AcDbXrecord
 90
        0
  0
XRECORD
  5
223C
102
{ACAD_REACTORS
330
2231
102
}
330
2231
100
AcDbXrecord
  1
{4530CFE0-B0D0-11D4-A139-00E02922560C}
  0
XRECORD
  5
223D
102
{ACAD_REACTORS
330
2231
102
}
330
2231
100
AcDbXrecord
  1
{C940560C-EB03-4577-A3DC-755226B2C0F3}
  0
XRECORD
  5
223E
102
{ACAD_REACTORS
330
2231
102
}
330
2231
100
AcDbXrecord
 40
0.0
  0
XRECORD
  5
223F
102
{ACAD_REACTORS
330
2231
102
}
330
2231
100
AcDbXrecord
340
0
  0
XRECORD
  5
2240
102
{ACAD_REACTORS
330
2231
102
}
330
2231
100
AcDbXrecord
 70
     0
  0
XRECORD
  5
2241
102
{ACAD_REACTORS
330
2231
102
}
330
2231
100
AcDbXrecord
340
0
  0
XRECORD
  5
2242
102
{ACAD_REACTORS
330
2231
102
}
330
2231
100
AcDbXrecord
 10
0.0
 20
0.0
 30
0.0
  0
XRECORD
  5
2243
102
{ACAD_REACTORS
330
2231
102
}
330
2231
100
AcDbXrecord
 10
0.0
 20
0.0
 30
0.0
  0
XRECORD
  5
2244
102
{ACAD_REACTORS
330
2231
102
}
330
2231
100
AcDbXrecord
 10
0.0
 20
0.0
 30
0.0
  0
XRECORD
  5
2245
102
{ACAD_REACTORS
330
2231
102
}
330
2231
100
AcDbXrecord
 10
0.0
 20
0.0
 30
0.0
  0
XRECORD
  5
2246
102
{ACAD_REACTORS
330
2231
102
}
330
2231
100
AcDbXrecord
 10
0.0
 20
0.0
 30
0.0
  0
XRECORD
  5
2247
102
{ACAD_REACTORS
330
2231
102
}
330
2231
100
AcDbXrecord
 10
0.0
 20
0.0
 30
0.0
  0
XRECORD
  5
2248
102
{ACAD_REACTORS
330
2231
102
}
330
2231
100
AcDbXrecord
340
0
  0
XRECORD
  5
2249
102
{ACAD_REACTORS
330
2231
102
}
330
2231
100
AcDbXrecord
 70
     0
  0
XRECORD
  5
224A
102
{ACAD_REACTORS
330
2231
102
}
330
2231
100
AcDbXrecord
340
0
  0
XRECORD
  5
224B
102
{ACAD_REACTORS
330
2231
102
}
330
2231
100
AcDbXrecord
 10
0.0
 20
0.0
 30
0.0
  0
XRECORD
  5
224C
102
{ACAD_REACTORS
330
2231
102
}
330
2231
100
AcDbXrecord
 10
0.0
 20
0.0
 30
0.0
  0
XRECORD
  5
224D
102
{ACAD_REACTORS
330
2231
102
}
330
2231
100
AcDbXrecord
 10
0.0
 20
0.0
 30
0.0
  0
XRECORD
  5
224E
102
{ACAD_REACTORS
330
2231
102
}
330
2231
100
AcDbXrecord
 10
0.0
 20
0.0
 30
0.0
  0
XRECORD
  5
224F
102
{ACAD_REACTORS
330
2231
102
}
330
2231
100
AcDbXrecord
 10
0.0
 20
0.0
 30
0.0
  0
XRECORD
  5
2250
102
{ACAD_REACTORS
330
2231
102
}
330
2231
100
AcDbXrecord
 10
0.0
 20
0.0
 30
0.0
  0
ENDSEC
  0
EOF
