  0
SECTION
  2
HEADER
  9
$ACADVER
  1
AC1009
  9
$INSBASE
 10
0.0
 20
0.0
 30
0.0
  9
$EXTMIN
 10
65.356792273382098
 20
56.584468452464868
 30
0.0
  9
$EXTMAX
 10
273.3678640982161
 20
174.1532351726373
 30
0.0
  9
$LIMMIN
 10
0.0
 20
0.0
  9
$LIMMAX
 10
10000.0
 20
10000.0
  9
$ORTHOMODE
 70
     1
  9
$REGENMODE
 70
     1
  9
$FILLMODE
 70
     1
  9
$QTEXTMODE
 70
     0
  9
$MIRRTEXT
 70
     1
  9
$DRAGMODE
 70
     2
  9
$LTSCALE
 40
1.0
  9
$OSMODE
 70
    32
  9
$ATTMODE
 70
     1
  9
$TEXTSIZE
 40
2.0
  9
$TRACEWID
 40
1.0
  9
$TEXTSTYLE
  7
AD-STANDARD
  9
$CLAYER
  8
0
  9
$CELTYPE
  6
BYLAYER
  9
$CECOLOR
 62
   256
  9
$DIMSCALE
 40
1.0
  9
$DIMASZ
 40
2.5
  9
$DIMEXO
 40
1.0
  9
$DIMDLI
 40
0.38
  9
$DIMRND
 40
0.0
  9
$DIMDLE
 40
0.0
  9
$DIMEXE
 40
2.0
  9
$DIMTP
 40
0.0
  9
$DIMTM
 40
0.0
  9
$DIMTXT
 40
3.5
  9
$DIMCEN
 40
-2.0
  9
$DIMTSZ
 40
0.0
  9
$DIMTOL
 70
     0
  9
$DIMLIM
 70
     0
  9
$DIMTIH
 70
     0
  9
$DIMTOH
 70
     0
  9
$DIMSE1
 70
     0
  9
$DIMSE2
 70
     0
  9
$DIMTAD
 70
     1
  9
$DIMZIN
 70
     8
  9
$DIMBLK
  1

  9
$DIMASO
 70
     1
  9
$DIMSHO
 70
     1
  9
$DIMPOST
  1

  9
$DIMAPOST
  1

  9
$DIMALT
 70
     0
  9
$DIMALTD
 70
     2
  9
$DIMALTF
 40
25.399999999999999
  9
$DIMLFAC
 40
1.0
  9
$DIMTOFL
 70
     1
  9
$DIMTVP
 40
0.0
  9
$DIMTIX
 70
     0
  9
$DIMSOXD
 70
     0
  9
$DIMSAH
 70
     0
  9
$DIMBLK1
  1

  9
$DIMBLK2
  1

  9
$DIMSTYLE
  2
AD-STANDARD
  9
$DIMCLRD
 70
     9
  9
$DIMCLRE
 70
     9
  9
$DIMCLRT
 70
     2
  9
$DIMTFAC
 40
1.0
  9
$DIMGAP
 40
0.5
  9
$LUNITS
 70
     2
  9
$LUPREC
 70
     4
  9
$SKETCHINC
 40
1.0
  9
$FILLETRAD
 40
0.5
  9
$AUNITS
 70
     0
  9
$AUPREC
 70
     0
  9
$MENU
  1
.
  9
$ELEVATION
 40
0.0
  9
$PELEVATION
 40
0.0
  9
$THICKNESS
 40
0.0
  9
$LIMCHECK
 70
     0
  9
$BLIPMODE
 70
     0
  9
$CHAMFERA
 40
0.0
  9
$CHAMFERB
 40
0.0
  9
$SKPOLY
 70
     0
  9
$TDCREATE
 40
2451428.3861848381
  9
$TDUPDATE
 40
2453973.8319516778
  9
$TDINDWG
 40
2.1526848032000001
  9
$TDUSRTIMER
 40
2.1526848032000001
  9
$USRTIMER
 70
     1
  9
$ANGBASE
 50
0.0
  9
$ANGDIR
 70
     0
  9
$PDMODE
 70
     0
  9
$PDSIZE
 40
0.0
  9
$PLINEWID
 40
0.0
  9
$COORDS
 70
     1
  9
$SPLFRAME
 70
     0
  9
$SPLINETYPE
 70
     6
  9
$SPLINESEGS
 70
     8
  9
$ATTDIA
 70
     0
  9
$ATTREQ
 70
     1
  9
$HANDLING
 70
 10241
  9
$HANDSEED
  5
72EE
  9
$SURFTAB1
 70
     6
  9
$SURFTAB2
 70
     6
  9
$SURFTYPE
 70
     6
  9
$SURFU
 70
     6
  9
$SURFV
 70
     6
  9
$UCSNAME
  2

  9
$UCSORG
 10
0.0
 20
0.0
 30
0.0
  9
$UCSXDIR
 10
1.0
 20
0.0
 30
0.0
  9
$UCSYDIR
 10
0.0
 20
1.0
 30
0.0
  9
$PUCSNAME
  2

  9
$PUCSORG
 10
0.0
 20
0.0
 30
0.0
  9
$PUCSXDIR
 10
1.0
 20
0.0
 30
0.0
  9
$PUCSYDIR
 10
0.0
 20
1.0
 30
0.0
  9
$USERI1
 70
     0
  9
$USERI2
 70
     0
  9
$USERI3
 70
     0
  9
$USERI4
 70
     0
  9
$USERI5
 70
     0
  9
$USERR1
 40
0.0
  9
$USERR2
 40
0.0
  9
$USERR3
 40
0.0
  9
$USERR4
 40
0.0
  9
$USERR5
 40
0.0
  9
$WORLDVIEW
 70
     1
  9
$SHADEDGE
 70
     3
  9
$SHADEDIF
 70
    70
  9
$TILEMODE
 70
     1
  9
$MAXACTVP
 70
    16
  9
$PLIMCHECK
 70
     0
  9
$PEXTMIN
 10
20.000000000000028
 20
16.99999999999994
 30
0.0
  9
$PEXTMAX
 10
404.99999999999977
 20
281.99999999999989
 30
0.0
  9
$PLIMMIN
 10
-5.789093017578125
 20
-5.8314166069030762
  9
$PLIMMAX
 10
414.19989013671869
 20
291.13690614700312
  9
$UNITMODE
 70
     0
  9
$VISRETAIN
 70
     0
  9
$PLINEGEN
 70
     0
  9
$PSLTSCALE
 70
     0
  0
ENDSEC
  0
SECTION
  2
TABLES
  0
TABLE
  2
VPORT
 70
     6
  0
VPORT
  2
*ACTIVE
 70
     0
 10
0.0
 20
0.0
 11
1.0
 21
1.0
 12
169.88188760312769
 22
116.7732533042082
 13
0.0
 23
0.0
 14
168.0
 24
168.0
 15
0.0
 25
0.0
 16
0.0
 26
0.0
 36
1.0
 17
0.0
 27
0.0
 37
0.0
 40
229.90954559582531
 41
1.6020806241872561
 42
50.0
 43
0.0
 44
0.0
 50
0.0
 51
0.0
 71
     0
 72
   100
 73
     1
 74
     0
 75
     0
 76
     0
 77
     0
 78
     1
  0
ENDTAB
  0
TABLE
  2
LTYPE
 70
     3
  0
LTYPE
  2
CONTINUOUS
 70
     0
  3
Solid line
 72
    65
 73
     0
 40
0.0
  0
LTYPE
  2
HIDDEN
 70
     0
  3
__ __ __ __ __ __ __ __ __ __ __ __ __ __ __ __
 72
    65
 73
     2
 40
0.375
 49
0.25
 49
-0.125
  0
ENDTAB
  0
TABLE
  2
LAYER
 70
     6
  0
LAYER
  2
0
 70
     0
 62
     7
  6
CONTINUOUS
  0
LAYER
  2
DEFPOINTS
 70
     0
 62
     7
  6
CONTINUOUS
  0
LAYER
  2
1
 70
     0
 62
     7
  6
CONTINUOUS
  0
ENDTAB
  0
TABLE
  2
STYLE
 70
     5
  0
STYLE
  2
STANDARD
 70
     0
 40
0.0
 41
0.8
 50
0.0
 71
     0
 42
84.175084175084166
  3
TXT
  4
bigfont.shx
  0
STYLE
  2
AD-STANDARD
 70
     0
 40
0.0
 41
0.8
 50
0.0
 71
     0
 42
2.0
  3
C:\Program Files\AutoCAD LT\romans.shx
  4
bigfont.shx
  0
ENDTAB
  0
TABLE
  2
VIEW
 70
     0
  0
ENDTAB
  0
TABLE
  2
UCS
 70
     0
  0
ENDTAB
  0
TABLE
  2
APPID
 70
     5
  0
APPID
  2
ACAD
 70
     0
  0
APPID
  2
CONTENTTABDATA
 70
     0
  0
APPID
  2
CONTENTCURRENTTAB
 70
     0
  0
APPID
  2
CONTENTBLOCKDESCRIPTION
 70
     0
  0
APPID
  2
CONTENTBLOCKICON
 70
     0
  0
ENDTAB
  0
TABLE
  2
DIMSTYLE
 70
     2
  0
DIMSTYLE
  2
STANDARD
 70
     0
  3

  4

  5

  6

  7

 40
1.0
 41
0.18
 42
0.0625
 43
0.38
 44
0.18
 45
0.0
 46
0.0
 47
0.0
 48
0.0
140
0.18
141
0.09
142
0.0
143
25.399999999999999
144
1.0
145
0.0
146
1.0
147
0.09
 71
     0
 72
     0
 73
     1
 74
     1
 75
     0
 76
     0
 77
     0
 78
     0
170
     0
171
     2
172
     0
173
     0
174
     0
175
     0
176
     0
177
     0
178
     0
  0
DIMSTYLE
  2
AD-STANDARD
 70
     0
  3

  4

  5

  6

  7

 40
1.0
 41
2.5
 42
1.0
 43
0.38
 44
2.0
 45
0.0
 46
0.0
 47
0.0
 48
0.0
140
3.5
141
-2.0
142
0.0
143
25.399999999999999
144
1.0
145
0.0
146
1.0
147
0.5
 71
     0
 72
     0
 73
     0
 74
     0
 75
     0
 76
     0
 77
     1
 78
     8
170
     0
171
     2
172
     1
173
     0
174
     0
175
     0
176
     9
177
     9
178
     2
  0
ENDTAB
  0
ENDSEC
  0
SECTION
  2
BLOCKS
  0
BLOCK
  8
0
  2
$MODEL_SPACE
 70
     0
 10
0.0
 20
0.0
 30
0.0
  3
$MODEL_SPACE
  1

  0
ENDBLK
  5
1C
  8
0
  0
BLOCK
 67
     1
  8
0
  2
$PAPER_SPACE
 70
     0
 10
0.0
 20
0.0
 30
0.0
  3
$PAPER_SPACE
  1

  0
ENDBLK
  5
19
 67
     1
  8
0
  0
BLOCK
  8
0
  2
*U15
 70
     1
 10
0.0
 20
0.0
 30
0.0
  3
*U15
  1

  0
LINE
  5
72B1
  8
0
 10
72.5
 20
17.0
 30
0.0
 11
105.7
 21
17.0
 31
0.0
  0
TEXT
  5
72B2
  8
0
 10
72.5
 20
17.5
 30
0.0
 40
2.5
  1
 次の寸法は適用範囲外とする｡
 41
0.8
  7
AD-STANDARD
  0
LINE
  5
72B3
  8
0
 10
72.5
 20
12.83333333333333
 30
0.0
 11
92.157142857142858
 21
12.83333333333333
 31
0.0
  0
TEXT
  5
72B4
  8
0
 10
72.5
 20
13.33333333333333
 30
0.0
 40
2.5
  1
  1.突起部の寸法
 41
0.8
  7
AD-STANDARD
  0
LINE
  5
72B5
  8
0
 10
72.5
 20
8.6666666666666679
 30
0.0
 11
106.55714285714279
 21
8.6666666666666679
 31
0.0
  0
TEXT
  5
72B6
  8
0
 10
72.5
 20
9.1666666666666679
 30
0.0
 40
2.5
  1
  2.塗装等の表面処理面の寸法
 41
0.8
  7
AD-STANDARD
  0
LINE
  5
72B7
  8
0
 10
72.5
 20
4.5
 30
0.0
 11
99.357142857142861
 21
4.5
 31
0.0
  0
TEXT
  5
72B8
  8
0
 10
72.5
 20
5.0
 30
0.0
 40
2.5
  1
  3.組立て部の合計寸法
 41
0.8
  7
AD-STANDARD
  0
LINE
  5
72B9
  8
0
 10
72.5
 20
0.3333333333333357
 30
0.0
 11
96.957142857142856
 21
0.3333333333333357
 31
0.0
  0
TEXT
  5
72BA
  8
0
 10
72.5
 20
0.8333333333333357
 30
0.0
 40
2.5
  1
  4.面取り部分の寸法
 41
0.8
  7
AD-STANDARD
  0
ENDBLK
  5
72BC
  8
0
  0
BLOCK
  8
0
  2
*U16
 70
     1
 10
0.0
 20
0.0
 30
0.0
  3
*U16
  1

  0
TEXT
  5
72E6
  8
0
 10
178.85840433991771
 20
155.34647953904371
 30
0.0
 40
3.5
  1
Direction of Load
 41
0.8
  7
AD-STANDARD
  0
TEXT
  5
72E7
  8
0
 10
178.85840433991771
 20
148.84647953904371
 30
0.0
 40
3.5
  1
(Positive output)
 41
0.8
  7
AD-STANDARD
  0
ENDBLK
  5
72E9
  8
0
  0
ENDSEC
  0
SECTION
  2
ENTITIES
  0
CIRCLE
  5
5EA0
  8
1
 10
215.36786409821519
 20
79.084468452464876
 30
0.0
 40
12.0
  0
LINE
  5
5EA7
  8
1
 10
102.3678640982143
 20
174.1532351726373
 30
0.0
 11
273.36786409821519
 21
174.1532351726373
 31
0.0
  0
LINE
  5
5EA8
  8
1
 10
102.3678640982143
 20
131.1532351726373
 30
0.0
 11
273.36786409821519
 21
131.1532351726373
 31
0.0
  0
LINE
  5
5EA9
  8
1
 10
180.36786409821431
 20
58.584468452464868
 30
0.0
 11
196.8678640982163
 21
58.584468452464868
 31
0.0
  0
LINE
  5
5EAA
  8
1
 10
102.3678640982143
 20
99.584468452464876
 30
0.0
 11
196.8678640982159
 21
99.584468452465359
 31
0.0
  0
LINE
  5
5EB3
  8
1
 10
102.3678640982143
 20
131.15323517263641
 30
0.0
 11
102.3678640982143
 21
174.1532351726373
 31
0.0
  0
CIRCLE
  5
5EB4
  8
1
 10
140.3678640982161
 20
79.084468452465785
 30
0.0
 40
13.5
  0
LINE
  5
5EB9
  8
1
 10
102.3678640982143
 20
56.584468452464868
 30
0.0
 11
178.36786409821431
 21
56.584468452464868
 31
0.0
  0
LINE
  5
5EC8
  8
1
 10
102.3678640982143
 20
56.584468452464868
 30
0.0
 11
102.3678640982143
 21
99.584468452464876
 31
0.0
  0
LINE
  5
5EC9
  8
1
 10
178.36786409821431
 20
56.584468452465792
 30
0.0
 11
180.36786409821519
 21
58.584468452464868
 31
0.0
  0
CIRCLE
  5
5EE1
  8
1
 10
121.3678640982143
 20
152.6532351726373
 30
0.0
 40
10.5
  0
CIRCLE
  5
5EE7
  8
1
 10
159.36786409821431
 20
152.6532351726373
 30
0.0
 40
10.5
  0
CIRCLE
  5
5EEC
  8
1
 10
254.36786409821431
 20
152.6532351726373
 30
0.0
 40
15.099999999999991
  0
LINE
  5
5EF3
  8
1
 10
273.36786409821428
 20
131.1532351726373
 30
0.0
 11
273.36786409821519
 21
174.1532351726373
 31
0.0
  0
LINE
  5
5EF6
  8
1
  6
HIDDEN
 10
239.26786409821349
 20
79.084468452464876
 30
0.0
 11
269.46786409821328
 21
79.084468452464876
 31
0.0
  0
LINE
  5
5EF7
  8
1
  6
HIDDEN
 10
239.26786409821349
 20
79.084468452464876
 30
0.0
 11
239.26786409821349
 21
99.584468452465785
 31
0.0
  0
LINE
  5
5EF8
  8
1
  6
HIDDEN
 10
269.46786409821237
 20
79.084468452464876
 30
0.0
 11
269.46786409821328
 21
99.584468452466695
 31
0.0
  0
LINE
  5
5F05
  8
1
  6
HIDDEN
 10
244.36786409821431
 20
58.584468452463973
 30
0.0
 11
245.86786409821249
 21
60.08446845246123
 31
0.0
  0
LINE
  5
5F06
  8
1
  6
HIDDEN
 10
264.36786409821428
 20
58.584468452463973
 30
0.0
 11
262.8678640982161
 21
60.08446845246123
 31
0.0
  0
LINE
  5
5F07
  8
1
  6
HIDDEN
 10
245.8678640982134
 20
60.084468452462147
 30
0.0
 11
262.86786409821428
 21
60.084468452463057
 31
0.0
  0
LINE
  5
5F08
  8
1
  6
HIDDEN
 10
245.8678640982134
 20
77.584468452467604
 30
0.0
 11
262.86786409821428
 21
77.584468452466695
 31
0.0
  0
LINE
  5
5F09
  8
1
  6
HIDDEN
 10
264.36786409821428
 20
79.084468452465785
 30
0.0
 11
262.8678640982161
 21
77.584468452468514
 31
0.0
  0
LINE
  5
5F0A
  8
1
  6
HIDDEN
 10
244.36786409821431
 20
79.084468452465785
 30
0.0
 11
245.86786409821249
 21
77.584468452468514
 31
0.0
  0
LINE
  5
5F0B
  8
1
  6
HIDDEN
 62
     9
 10
264.36786409821428
 20
79.084468452465785
 30
0.0
 11
264.36786409821519
 21
58.584468452464868
 31
0.0
  0
LINE
  5
5F0C
  8
1
  6
HIDDEN
 10
262.86786409821428
 20
77.584468452466695
 30
0.0
 11
262.86786409821428
 21
60.084468452463057
 31
0.0
  0
LINE
  5
5F0D
  8
1
  6
HIDDEN
 10
245.8678640982134
 20
77.584468452467604
 30
0.0
 11
245.86786409821519
 21
60.084468452462147
 31
0.0
  0
LINE
  5
5F0E
  8
1
  6
HIDDEN
 62
     9
 10
244.36786409821431
 20
79.084468452465785
 30
0.0
 11
244.36786409821431
 21
58.584468452464868
 31
0.0
  0
LINE
  5
5F10
  8
1
 10
273.3678640982161
 20
58.584468452464868
 30
0.0
 11
273.36786409821519
 21
99.584468452465785
 31
0.0
  0
CIRCLE
  5
5F14
  8
1
 10
254.36786409821431
 20
152.6532351726373
 30
0.0
 40
8.5
  0
CIRCLE
  5
5F15
  8
1
 62
     9
 10
254.36786409821431
 20
152.6532351726373
 30
0.0
 40
10.0
  0
LINE
  5
60BB
  8
1
 10
94.367864098214113
 20
141.34938759534381
 30
0.0
 11
94.367864098214113
 21
130.95708274993049
 31
0.0
  0
LINE
  5
60BC
  8
1
 10
100.3678640982143
 20
143.08143840291291
 30
0.0
 11
100.3678640982143
 21
129.22503194236171
 31
0.0
  0
LINE
  5
60BD
  8
1
 10
95.367864098214341
 20
143.08143840291311
 30
0.0
 11
100.3678640982141
 21
143.08143840291291
 31
0.0
  0
LINE
  5
60BE
  8
1
 10
95.367864098214341
 20
139.61733678777489
 30
0.0
 11
100.3678640982141
 21
139.617336787775
 31
0.0
  0
LINE
  5
60BF
  8
1
 10
95.367864098213886
 20
132.68913355749959
 30
0.0
 11
100.3678640982143
 21
132.6891335574995
 31
0.0
  0
LINE
  5
60C0
  8
1
 10
95.367864098214341
 20
129.22503194236171
 30
0.0
 11
100.3678640982143
 21
129.22503194236171
 31
0.0
  0
LINE
  5
60C1
  8
1
 10
102.3678640982143
 20
140.1532351726373
 30
0.0
 11
100.3678640982143
 21
140.1532351726373
 31
0.0
  0
LINE
  5
60C2
  8
1
 10
102.3678640982143
 20
132.1532351726373
 30
0.0
 11
100.3678640982143
 21
132.1532351726373
 31
0.0
  0
LINE
  5
60C4
  8
1
 10
94.367864098214113
 20
141.34938759534381
 30
0.0
 11
95.367864098214341
 21
143.08143840291311
 31
0.0
  0
ARC
  5
60C6
  8
1
 10
100.86786409821271
 20
136.1532351726373
 30
0.0
 40
6.4999999999985816
 50
147.7957724960215
 51
212.2042275039789
  0
ARC
  5
60C7
  8
1
 10
96.367864098214568
 20
141.3493875953439
 30
0.0
 40
2.000000000000425
 50
180.00000000000159
 51
239.9999999999979
  0
LINE
  5
60C8
  8
1
 10
94.367864098214113
 20
130.95708274993081
 30
0.0
 11
95.367864098214341
 21
129.22503194236151
 31
0.0
  0
ARC
  5
60C9
  8
1
 10
96.367864098214568
 20
130.95708274993069
 30
0.0
 40
2.000000000000425
 50
120.0000000000021
 51
179.99999999999829
  0
LINE
  5
60CF
  8
1
 10
94.367864098213886
 20
85.084468452464876
 30
0.0
 11
94.367864098214113
 21
73.084468452464876
 31
0.0
  0
LINE
  5
60D7
  8
1
 10
102.3678640982143
 20
75.084468452464876
 30
0.0
 11
100.3678640982143
 21
75.084468452464876
 31
0.0
  0
LINE
  5
60D8
  8
1
 10
102.3678640982143
 20
83.084468452464876
 30
0.0
 11
100.3678640982143
 21
83.084468452464876
 31
0.0
  0
LINE
  5
60D9
  8
1
 10
100.3678640982143
 20
85.084468452464876
 30
0.0
 11
100.3678640982143
 21
73.084468452464876
 31
0.0
  0
LINE
  5
60DA
  8
1
 10
94.367864098213886
 20
85.084468452464876
 30
0.0
 11
100.3678640982143
 21
85.084468452464876
 31
0.0
  0
LINE
  5
60DC
  8
1
 10
95.367864098214113
 20
79.084468452464833
 30
0.0
 11
100.3678640982143
 21
79.084468452464876
 31
0.0
  0
ARC
  5
60DE
  8
1
 10
99.367864098212976
 20
82.084468452464819
 30
0.0
 40
4.9999999999991243
 50
143.1301023541476
 51
216.8698976458513
  0
LINE
  5
60DF
  8
1
 10
94.367864098213886
 20
73.084468452464876
 30
0.0
 11
100.3678640982143
 21
73.084468452464876
 31
0.0
  0
ARC
  5
60E0
  8
1
 10
99.367864098212976
 20
76.084468452464932
 30
0.0
 40
4.9999999999991243
 50
143.13010235414859
 51
216.86989764585229
  0
LINE
  5
60E3
  8
1
 10
94.367864098214113
 20
134.1532351726373
 30
0.0
 11
65.356792273382325
 21
134.1532351726373
 31
0.0
  0
LINE
  5
60E4
  8
1
 10
94.367864098214113
 20
138.1532351726373
 30
0.0
 11
65.356792273382325
 21
138.1532351726373
 31
0.0
  0
LINE
  5
60E5
  8
1
 10
94.367864098213886
 20
81.084468452464876
 30
0.0
 11
65.356792273382098
 21
81.084468452464876
 31
0.0
  0
LINE
  5
60E6
  8
1
 10
94.367864098213886
 20
77.084468452464876
 30
0.0
 11
65.356792273382098
 21
77.084468452464876
 31
0.0
  0
LINE
  5
6BE0
  8
1
 10
199.3678640982159
 20
97.084468452465302
 30
0.0
 11
231.36786409821499
 21
97.084468452465501
 31
0.0
  0
LINE
  5
6BE2
  8
1
 10
199.3678640982157
 20
97.084468452465416
 30
0.0
 11
196.8678640982159
 21
99.584468452465359
 31
0.0
  0
LINE
  5
6BE3
  8
1
 10
231.36786409821499
 20
97.084468452465501
 30
0.0
 11
233.8678640982148
 21
99.584468452465586
 31
0.0
  0
LINE
  5
6BE4
  8
1
 10
233.86786409821519
 20
99.584468452465586
 30
0.0
 11
273.36786409821519
 21
99.584468452465785
 31
0.0
  0
LINE
  5
6BE5
  8
1
 10
199.3678640982159
 20
61.084468452464449
 30
0.0
 11
231.36786409821499
 21
61.08446845246425
 31
0.0
  0
LINE
  5
6BE6
  8
1
 10
199.3678640982157
 20
61.084468452464328
 30
0.0
 11
196.8678640982159
 21
58.584468452464392
 31
0.0
  0
LINE
  5
6BE7
  8
1
 10
231.36786409821499
 20
61.08446845246425
 30
0.0
 11
233.8678640982148
 21
58.584468452464158
 31
0.0
  0
LINE
  5
6BE8
  8
1
 10
233.86786409821411
 20
58.584468452464868
 30
0.0
 11
273.36786409821519
 21
58.584468452464868
 31
0.0
  0
LINE
  5
7021
  8
1
 10
196.8678640982161
 20
131.1532351726373
 30
0.0
 11
196.8678640982161
 21
174.1532351726373
 31
0.0
  0
LINE
  5
7022
  8
1
 10
199.3678640982157
 20
131.1532351726373
 30
0.0
 11
199.3678640982157
 21
174.1532351726373
 31
0.0
  0
LINE
  5
7023
  8
1
 10
231.36786409821519
 20
131.15323517263721
 30
0.0
 11
231.36786409821519
 21
174.1532351726373
 31
0.0
  0
LINE
  5
7024
  8
1
 10
233.86786409821451
 20
131.1532351726373
 30
0.0
 11
233.8678640982148
 21
174.1532351726373
 31
0.0
  0
VIEWPORT
  5
22
 67
     1
  8
0
 10
221.9870622122196
 20
141.5110714772245
 30
0.0
 40
498.67341813950452
 41
311.2661189523368
 68
     1
 69
     1
1001
ACAD
1000
MVIEW
1002
{
1070
    16
1010
0.0
1020
0.0
1030
0.0
1010
0.0
1020
0.0
1030
1.0
1040
0.0
1040
311.2661189523368
1040
221.9870622122196
1040
141.5110714772245
1040
50.0
1040
0.0
1040
0.0
1070
     0
1070
   100
1070
     1
1070
     0
1070
     0
1070
     0
1070
     0
1070
     0
1040
0.0
1040
0.0
1040
0.0
1040
1.0
1040
1.0
1040
10.0
1040
10.0
1070
     0
1002
{
1002
}
1002
}
  0
VIEWPORT
  5
2CF
 67
     1
  8
DEFPOINTS
 10
212.49999999999989
 20
149.49999999999989
 30
0.0
 40
384.99999999999977
 41
265.0
 68
     2
 69
     2
1001
ACAD
1000
MVIEW
1002
{
1070
    16
1010
0.0
1020
0.0
1030
0.0
1010
0.0
1020
0.0
1030
1.0
1040
0.0
1040
264.99999998157608
1040
196.9778421907173
1040
111.6389403075118
1040
50.0
1040
0.0
1040
0.0
1070
     0
1070
   100
1070
     1
1070
     0
1070
     0
1070
     0
1070
     0
1070
     1
1040
0.0
1040
0.0
1040
0.0
1040
168.0
1040
168.0
1040
0.0
1040
0.0
1070
     0
1002
{
1002
}
1002
}
  0
ENDSEC
  0
EOF
