  0
SECTION
  2
HEADER
  9
$ACADVER
  1
AC1009
  9
$INSBASE
 10
0.0
 20
0.0
 30
0.0
  9
$EXTMIN
 10
40.401827027120817
 20
61.533867944451011
 30
0.0
  9
$EXTMAX
 10
440.8456849951549
 20
467.10475239367469
 30
0.0
  9
$LIMMIN
 10
0.0
 20
0.0
  9
$LIMMAX
 10
10000.0
 20
10000.0
  9
$ORTHOMODE
 70
     1
  9
$REGENMODE
 70
     1
  9
$FILLMODE
 70
     1
  9
$QTEXTMODE
 70
     0
  9
$MIRRTEXT
 70
     1
  9
$DRAGMODE
 70
     2
  9
$LTSCALE
 40
1.0
  9
$OSMODE
 70
    32
  9
$ATTMODE
 70
     1
  9
$TEXTSIZE
 40
2.0
  9
$TRACEWID
 40
1.0
  9
$TEXTSTYLE
  7
AD-STANDARD
  9
$CLAYER
  8
0
  9
$CELTYPE
  6
BYLAYER
  9
$CECOLOR
 62
   256
  9
$DIMSCALE
 40
2.0
  9
$DIMASZ
 40
2.5
  9
$DIMEXO
 40
1.0
  9
$DIMDLI
 40
0.38
  9
$DIMRND
 40
0.0
  9
$DIMDLE
 40
0.0
  9
$DIMEXE
 40
2.0
  9
$DIMTP
 40
0.0
  9
$DIMTM
 40
0.0
  9
$DIMTXT
 40
3.5
  9
$DIMCEN
 40
-2.0
  9
$DIMTSZ
 40
0.0
  9
$DIMTOL
 70
     0
  9
$DIMLIM
 70
     0
  9
$DIMTIH
 70
     0
  9
$DIMTOH
 70
     0
  9
$DIMSE1
 70
     0
  9
$DIMSE2
 70
     0
  9
$DIMTAD
 70
     1
  9
$DIMZIN
 70
     8
  9
$DIMBLK
  1

  9
$DIMASO
 70
     1
  9
$DIMSHO
 70
     1
  9
$DIMPOST
  1

  9
$DIMAPOST
  1

  9
$DIMALT
 70
     0
  9
$DIMALTD
 70
     2
  9
$DIMALTF
 40
25.399999999999999
  9
$DIMLFAC
 40
1.0
  9
$DIMTOFL
 70
     1
  9
$DIMTVP
 40
0.0
  9
$DIMTIX
 70
     0
  9
$DIMSOXD
 70
     0
  9
$DIMSAH
 70
     0
  9
$DIMBLK1
  1

  9
$DIMBLK2
  1

  9
$DIMSTYLE
  2
AD-STANDARD
  9
$DIMCLRD
 70
     9
  9
$DIMCLRE
 70
     9
  9
$DIMCLRT
 70
     2
  9
$DIMTFAC
 40
1.0
  9
$DIMGAP
 40
0.5
  9
$LUNITS
 70
     2
  9
$LUPREC
 70
     4
  9
$SKETCHINC
 40
1.0
  9
$FILLETRAD
 40
0.5
  9
$AUNITS
 70
     0
  9
$AUPREC
 70
     0
  9
$MENU
  1
.
  9
$ELEVATION
 40
0.0
  9
$PELEVATION
 40
0.0
  9
$THICKNESS
 40
0.0
  9
$LIMCHECK
 70
     0
  9
$BLIPMODE
 70
     0
  9
$CHAMFERA
 40
0.0
  9
$CHAMFERB
 40
0.0
  9
$SKPOLY
 70
     0
  9
$TDCREATE
 40
2451428.3861848381
  9
$TDUPDATE
 40
2453973.787791898
  9
$TDINDWG
 40
1.9659427545999999
  9
$TDUSRTIMER
 40
1.9659427545999999
  9
$USRTIMER
 70
     1
  9
$ANGBASE
 50
0.0
  9
$ANGDIR
 70
     0
  9
$PDMODE
 70
     0
  9
$PDSIZE
 40
0.0
  9
$PLINEWID
 40
0.0
  9
$COORDS
 70
     1
  9
$SPLFRAME
 70
     0
  9
$SPLINETYPE
 70
     6
  9
$SPLINESEGS
 70
     8
  9
$ATTDIA
 70
     0
  9
$ATTREQ
 70
     1
  9
$HANDLING
 70
 10241
  9
$HANDSEED
  5
718C
  9
$SURFTAB1
 70
     6
  9
$SURFTAB2
 70
     6
  9
$SURFTYPE
 70
     6
  9
$SURFU
 70
     6
  9
$SURFV
 70
     6
  9
$UCSNAME
  2

  9
$UCSORG
 10
0.0
 20
0.0
 30
0.0
  9
$UCSXDIR
 10
1.0
 20
0.0
 30
0.0
  9
$UCSYDIR
 10
0.0
 20
1.0
 30
0.0
  9
$PUCSNAME
  2

  9
$PUCSORG
 10
0.0
 20
0.0
 30
0.0
  9
$PUCSXDIR
 10
1.0
 20
0.0
 30
0.0
  9
$PUCSYDIR
 10
0.0
 20
1.0
 30
0.0
  9
$USERI1
 70
     0
  9
$USERI2
 70
     0
  9
$USERI3
 70
     0
  9
$USERI4
 70
     0
  9
$USERI5
 70
     0
  9
$USERR1
 40
0.0
  9
$USERR2
 40
0.0
  9
$USERR3
 40
0.0
  9
$USERR4
 40
0.0
  9
$USERR5
 40
0.0
  9
$WORLDVIEW
 70
     1
  9
$SHADEDGE
 70
     3
  9
$SHADEDIF
 70
    70
  9
$TILEMODE
 70
     1
  9
$MAXACTVP
 70
    16
  9
$PLIMCHECK
 70
     0
  9
$PEXTMIN
 10
20.000000000000028
 20
16.99999999999994
 30
0.0
  9
$PEXTMAX
 10
404.99999999999977
 20
281.99999999999989
 30
0.0
  9
$PLIMMIN
 10
-7.14373779296875
 20
-7.1437497138977051
  9
$PLIMMAX
 10
413.01458740234369
 20
289.98332548141479
  9
$UNITMODE
 70
     0
  9
$VISRETAIN
 70
     0
  9
$PLINEGEN
 70
     0
  9
$PSLTSCALE
 70
     0
  0
ENDSEC
  0
SECTION
  2
TABLES
  0
TABLE
  2
VPORT
 70
     6
  0
VPORT
  2
*ACTIVE
 70
     0
 10
0.0
 20
0.0
 11
1.0
 21
1.0
 12
328.5186328157244
 22
164.59680023223839
 13
0.0
 23
0.0
 14
168.0
 24
168.0
 15
0.0
 25
0.0
 16
0.0
 26
0.0
 36
1.0
 17
0.0
 27
0.0
 37
0.0
 40
776.57988879067784
 41
1.6020806241872561
 42
50.0
 43
0.0
 44
0.0
 50
0.0
 51
0.0
 71
     0
 72
   100
 73
     1
 74
     0
 75
     0
 76
     0
 77
     0
 78
     1
  0
ENDTAB
  0
TABLE
  2
LTYPE
 70
     3
  0
LTYPE
  2
CONTINUOUS
 70
     0
  3
Solid line
 72
    65
 73
     0
 40
0.0
  0
LTYPE
  2
CENTER
 70
     0
  3
____ _ ____ _ ____ _ ____ _ ____ _ ____ _ ____ 
 72
    65
 73
     4
 40
2.0
 49
1.25
 49
-0.25
 49
0.25
 49
-0.25
  0
LTYPE
  2
HIDDEN
 70
     0
  3
__ __ __ __ __ __ __ __ __ __ __ __ __ __ __ __
 72
    65
 73
     2
 40
0.375
 49
0.25
 49
-0.125
  0
ENDTAB
  0
TABLE
  2
LAYER
 70
     8
  0
LAYER
  2
0
 70
     0
 62
     7
  6
CONTINUOUS
  0
LAYER
  2
DEFPOINTS
 70
     0
 62
     7
  6
CONTINUOUS
  0
LAYER
  2
CENTER
 70
     0
 62
     9
  6
CENTER
  0
LAYER
  2
1
 70
     0
 62
     7
  6
CONTINUOUS
  0
ENDTAB
  0
TABLE
  2
STYLE
 70
     5
  0
STYLE
  2
STANDARD
 70
     0
 40
0.0
 41
0.8
 50
0.0
 71
     0
 42
84.175084175084166
  3
TXT
  4
bigfont.shx
  0
STYLE
  2
AD-STANDARD
 70
     0
 40
0.0
 41
0.8
 50
0.0
 71
     0
 42
2.0
  3
C:\Program Files\AutoCAD LT\romans.shx
  4
bigfont.shx
  0
ENDTAB
  0
TABLE
  2
VIEW
 70
     0
  0
ENDTAB
  0
TABLE
  2
UCS
 70
     0
  0
ENDTAB
  0
TABLE
  2
APPID
 70
     5
  0
APPID
  2
ACAD
 70
     0
  0
APPID
  2
CONTENTTABDATA
 70
     0
  0
APPID
  2
CONTENTCURRENTTAB
 70
     0
  0
APPID
  2
CONTENTBLOCKDESCRIPTION
 70
     0
  0
APPID
  2
CONTENTBLOCKICON
 70
     0
  0
ENDTAB
  0
TABLE
  2
DIMSTYLE
 70
     2
  0
DIMSTYLE
  2
STANDARD
 70
     0
  3

  4

  5

  6

  7

 40
1.0
 41
0.18
 42
0.0625
 43
0.38
 44
0.18
 45
0.0
 46
0.0
 47
0.0
 48
0.0
140
0.18
141
0.09
142
0.0
143
25.399999999999999
144
1.0
145
0.0
146
1.0
147
0.09
 71
     0
 72
     0
 73
     1
 74
     1
 75
     0
 76
     0
 77
     0
 78
     0
170
     0
171
     2
172
     0
173
     0
174
     0
175
     0
176
     0
177
     0
178
     0
  0
DIMSTYLE
  2
AD-STANDARD
 70
     0
  3

  4

  5

  6

  7

 40
2.0
 41
2.5
 42
1.0
 43
0.38
 44
2.0
 45
0.0
 46
0.0
 47
0.0
 48
0.0
140
3.5
141
-2.0
142
0.0
143
25.399999999999999
144
1.0
145
0.0
146
1.0
147
0.5
 71
     0
 72
     0
 73
     0
 74
     0
 75
     0
 76
     0
 77
     1
 78
     8
170
     0
171
     2
172
     1
173
     0
174
     0
175
     0
176
     9
177
     9
178
     2
  0
ENDTAB
  0
ENDSEC
  0
SECTION
  2
BLOCKS
  0
BLOCK
  8
0
  2
$MODEL_SPACE
 70
     0
 10
0.0
 20
0.0
 30
0.0
  3
$MODEL_SPACE
  1

  0
ENDBLK
  5
1C
  8
0
  0
BLOCK
 67
     1
  8
0
  2
$PAPER_SPACE
 70
     0
 10
0.0
 20
0.0
 30
0.0
  3
$PAPER_SPACE
  1

  0
ENDBLK
  5
19
 67
     1
  8
0
  0
BLOCK
  8
0
  2
*U41
 70
     1
 10
0.0
 20
0.0
 30
0.0
  3
*U41
  1

  0
LINE
  5
7150
  8
0
 10
72.5
 20
17.0
 30
0.0
 11
105.7
 21
17.0
 31
0.0
  0
TEXT
  5
7151
  8
0
 10
72.5
 20
17.5
 30
0.0
 40
2.5
  1
 次の寸法は適用範囲外とする｡
 41
0.8
  7
AD-STANDARD
  0
LINE
  5
7152
  8
0
 10
72.5
 20
12.83333333333333
 30
0.0
 11
92.157142857142858
 21
12.83333333333333
 31
0.0
  0
TEXT
  5
7153
  8
0
 10
72.5
 20
13.33333333333333
 30
0.0
 40
2.5
  1
  1.突起部の寸法
 41
0.8
  7
AD-STANDARD
  0
LINE
  5
7154
  8
0
 10
72.5
 20
8.6666666666666679
 30
0.0
 11
106.55714285714279
 21
8.6666666666666679
 31
0.0
  0
TEXT
  5
7155
  8
0
 10
72.5
 20
9.1666666666666679
 30
0.0
 40
2.5
  1
  2.塗装等の表面処理面の寸法
 41
0.8
  7
AD-STANDARD
  0
LINE
  5
7156
  8
0
 10
72.5
 20
4.5
 30
0.0
 11
99.357142857142861
 21
4.5
 31
0.0
  0
TEXT
  5
7157
  8
0
 10
72.5
 20
5.0
 30
0.0
 40
2.5
  1
  3.組立て部の合計寸法
 41
0.8
  7
AD-STANDARD
  0
LINE
  5
7158
  8
0
 10
72.5
 20
0.3333333333333357
 30
0.0
 11
96.957142857142856
 21
0.3333333333333357
 31
0.0
  0
TEXT
  5
7159
  8
0
 10
72.5
 20
0.8333333333333357
 30
0.0
 40
2.5
  1
  4.面取り部分の寸法
 41
0.8
  7
AD-STANDARD
  0
ENDBLK
  5
715B
  8
0
  0
BLOCK
  8
0
  2
*U42
 70
     1
 10
0.0
 20
0.0
 30
0.0
  3
*U42
  1

  0
TEXT
  5
715D
  8
0
 62
     2
 10
-1834.475410954142
 20
359.1088103108047
 30
0.0
 40
7.0
  1
200
 41
0.8
  7
AD-STANDARD
  0
TEXT
  5
715E
  8
0
 62
     2
 10
-1818.475410954142
 20
360.15881031080471
 30
0.0
 40
4.9000000000000004
  1
±1
 41
0.8
  7
AD-STANDARD
  0
ENDBLK
  5
7160
  8
0
  0
BLOCK
  8
0
  2
*U43
 70
     1
 10
0.0
 20
0.0
 30
0.0
  3
*U43
  1

  0
TEXT
  5
7162
  8
0
 62
     2
 10
-1692.4819261534101
 20
246.3543513077795
 30
0.0
 40
7.0
  1
150
 50
90.0
 41
0.8
  7
AD-STANDARD
  0
TEXT
  5
7163
  8
0
 62
     2
 10
-1693.5319261534089
 20
262.3543513077795
 30
0.0
 40
4.9000000000000004
  1
±1
 50
90.0
 41
0.8
  7
AD-STANDARD
  0
ENDBLK
  5
7165
  8
0
  0
BLOCK
  8
0
  2
*U44
 70
     1
 10
0.0
 20
0.0
 30
0.0
  3
*U44
  1

  0
TEXT
  5
7167
  8
0
 62
     2
 10
-2161.4643353407891
 20
32.33709596252163
 30
0.0
 40
7.0
  1
199
 50
90.0
 41
0.8
  7
AD-STANDARD
  0
TEXT
  5
7168
  8
0
 62
     2
 10
-2162.5143353407889
 20
48.33709596252163
 30
0.0
 40
4.9000000000000004
  1
±1
 50
90.0
 41
0.8
  7
AD-STANDARD
  0
ENDBLK
  5
716A
  8
0
  0
BLOCK
  8
0
  2
*U45
 70
     1
 10
0.0
 20
0.0
 30
0.0
  3
*U45
  1

  0
TEXT
  5
717E
  8
0
 62
     2
 10
322.1611168697172
 20
483.40483613449851
 30
0.0
 40
7.0
  1
200
 41
0.8
  7
AD-STANDARD
  0
TEXT
  5
717F
  8
0
 62
     2
 10
338.1611168697172
 20
484.45483613449852
 30
0.0
 40
4.9000000000000004
  1
±1
 41
0.8
  7
AD-STANDARD
  0
ENDBLK
  5
7181
  8
0
  0
BLOCK
  8
0
  2
*U46
 70
     1
 10
0.0
 20
0.0
 30
0.0
  3
*U46
  1

  0
TEXT
  5
7183
  8
0
 62
     2
 10
-5.9489337497157591
 20
156.6331217862157
 30
0.0
 40
7.0
  1
199
 50
90.0
 41
0.8
  7
AD-STANDARD
  0
TEXT
  5
7184
  8
0
 62
     2
 10
-6.9989337497157571
 20
172.6331217862157
 30
0.0
 40
4.9000000000000004
  1
±1
 50
90.0
 41
0.8
  7
AD-STANDARD
  0
ENDBLK
  5
7186
  8
0
  0
BLOCK
  8
0
  2
*U47
 70
     1
 10
0.0
 20
0.0
 30
0.0
  3
*U47
  1

  0
TEXT
  5
7188
  8
0
 62
     2
 10
464.1546016704491
 20
370.65037713147331
 30
0.0
 40
7.0
  1
150
 50
90.0
 41
0.8
  7
AD-STANDARD
  0
TEXT
  5
7189
  8
0
 62
     2
 10
463.1046016704492
 20
386.65037713147331
 30
0.0
 40
4.9000000000000004
  1
±1
 50
90.0
 41
0.8
  7
AD-STANDARD
  0
ENDBLK
  5
718B
  8
0
  0
ENDSEC
  0
SECTION
  2
ENTITIES
  0
LINE
  5
6B20
  8
CENTER
 10
374.93978353638562
 20
317.85242229264821
 30
0.0
 11
374.93978353638562
 21
331.80566530363302
 31
0.0
  0
LINE
  5
6B21
  8
CENTER
 10
292.9397835363838
 20
317.85242229264821
 30
0.0
 11
292.9397835363838
 21
331.80566530363302
 31
0.0
  0
CIRCLE
  5
6B22
  8
1
  6
HIDDEN
 10
374.93978353638562
 20
324.82904379814062
 30
0.0
 40
5.0
  0
CIRCLE
  5
6B23
  8
1
 62
     9
 10
374.93978353638562
 20
324.82904379814062
 30
0.0
 40
4.0
  0
CIRCLE
  5
6B24
  8
1
 10
374.93978353638562
 20
324.82904379814062
 30
0.0
 40
3.2999999999999989
  0
CIRCLE
  5
6B25
  8
1
 10
403.9397835363838
 20
332.82904379813971
 30
0.0
 40
10.0
  0
LINE
  5
6B26
  8
CENTER
 62
     9
 10
403.9397835363838
 20
328.82904379813971
 30
0.0
 11
403.9397835363838
 21
320.82904379813971
 31
0.0
  0
LINE
  5
6B27
  8
CENTER
 10
333.9397835363838
 20
467.10475239367469
 30
0.0
 11
333.93978353638403
 21
285.80181751245698
 31
0.0
  0
LINE
  5
6B28
  8
1
 10
433.93978353638471
 20
457.82904379814062
 30
0.0
 11
433.93978353638289
 21
307.82904379813982
 31
0.0
  0
CIRCLE
  5
6B2A
  8
1
 10
263.9397835363838
 20
332.82904379814062
 30
0.0
 40
10.0
  0
LINE
  5
6B2B
  8
CENTER
 62
     9
 10
263.9397835363838
 20
328.82904379814062
 30
0.0
 11
263.9397835363838
 21
320.82904379814067
 31
0.0
  0
CIRCLE
  5
6B2C
  8
1
  6
HIDDEN
 10
292.9397835363838
 20
324.82904379814062
 30
0.0
 40
5.0
  0
CIRCLE
  5
6B2D
  8
1
 62
     9
 10
292.9397835363838
 20
324.82904379814062
 30
0.0
 40
4.0
  0
CIRCLE
  5
6B2E
  8
1
 10
292.9397835363838
 20
324.82904379814062
 30
0.0
 40
3.2999999999999989
  0
LINE
  5
6B2F
  8
1
 10
233.9397835363836
 20
457.82904379813971
 30
0.0
 11
233.9397835363836
 21
307.82904379814062
 31
0.0
  0
LINE
  5
6B32
  8
1
 10
233.9397835363838
 20
307.82904379814062
 30
0.0
 11
433.93978353638317
 21
307.82904379813971
 31
0.0
  0
LINE
  5
6B33
  8
1
 10
433.93978353638198
 20
69.311788452881714
 30
0.0
 11
233.93978353638201
 21
69.311788452882638
 31
0.0
  0
LINE
  5
6B34
  8
1
 10
433.93978353638198
 20
81.311788452881729
 30
0.0
 11
233.93978353638201
 21
81.311788452881729
 31
0.0
  0
LINE
  5
6B35
  8
1
 10
233.93978353638559
 20
268.31178845288298
 30
0.0
 11
433.93978353638568
 21
268.31178845288213
 31
0.0
  0
LINE
  5
6B36
  8
1
 10
233.93978353638559
 20
256.31178845288309
 30
0.0
 11
433.93978353638568
 21
256.31178845288309
 31
0.0
  0
LINE
  5
6B37
  8
CENTER
 62
     9
 10
406.17534830838161
 20
177.51178845289419
 30
0.0
 11
270.75980185832162
 21
177.51178845289419
 31
0.0
  0
LINE
  5
6B38
  8
1
 10
148.90182702712261
 20
128.81178845288849
 30
0.0
 11
148.90182702712261
 21
132.31178845288849
 31
0.0
  0
LINE
  5
6B39
  8
CENTER
 10
115.40182702712259
 20
63.185870953428321
 30
0.0
 11
115.40182702712259
 21
277.67543571253981
 31
0.0
  0
LINE
  5
6B3A
  8
1
 10
81.90182702712309
 20
128.81178845288849
 30
0.0
 11
81.90182702712309
 21
132.31178845288849
 31
0.0
  0
LINE
  5
6B3C
  8
1
 10
190.40182702712079
 20
69.311788452881714
 30
0.0
 11
40.401827027120817
 21
69.311788452882638
 31
0.0
  0
LINE
  5
6B3D
  8
1
 10
190.40182702712079
 20
81.311788452881729
 30
0.0
 11
40.401827027120817
 21
81.311788452881729
 31
0.0
  0
LINE
  5
6B3E
  8
1
 10
151.40182702712261
 20
107.31178845288851
 30
0.0
 11
151.4018270271217
 21
81.311788452881729
 31
0.0
  0
LINE
  5
6B3F
  8
1
  6
HIDDEN
 10
151.40182702712261
 20
116.311788452888
 30
0.0
 11
150.40182702712261
 21
117.311788452888
 31
0.0
  0
ARC
  5
6B40
  8
1
 10
149.90182702712301
 20
120.31178845288861
 30
0.0
 40
1.0
 50
179.99999999999341
 51
270.0
  0
LINE
  5
6B41
  8
1
 10
148.90182702712261
 20
120.311788452889
 30
0.0
 11
148.90182702712301
 21
122.311788452889
 31
0.0
  0
ARC
  5
6B42
  8
1
 10
146.40182702712301
 20
128.81178845288781
 30
0.0
 40
2.5
 50
270.0
 51
0.0
  0
ARC
  5
6B43
  8
1
 10
146.40182702712261
 20
122.3117884528878
 30
0.0
 40
2.5
 50
359.99999999998693
 51
90.0
  0
ARC
  5
6B44
  8
1
 10
145.65182702712261
 20
125.5617884528878
 30
0.0
 40
0.75
 50
90.0
 51
270.0
  0
LINE
  5
6B45
  8
1
 10
153.90182702712261
 20
107.81178845288851
 30
0.0
 11
153.90182702712261
 21
117.31178845288851
 31
0.0
  0
LINE
  5
6B46
  8
1
 10
149.90182702712301
 20
119.31178845288851
 30
0.0
 11
151.90182702712261
 21
119.31178845288851
 31
0.0
  0
LINE
  5
6B47
  8
1
 10
150.90182702712261
 20
107.31178845288851
 30
0.0
 11
153.40182702712261
 21
107.31178845288851
 31
0.0
  0
ARC
  5
6B48
  8
1
 10
153.40182702712301
 20
107.81178845288861
 30
0.0
 40
0.5
 50
270.0
 51
0.0
  0
ARC
  5
6B49
  8
1
 10
151.90182702712301
 20
117.31178845288861
 30
0.0
 40
2.0
 50
0.0
 51
90.0
  0
LINE
  5
6B4A
  8
1
  6
HIDDEN
 10
151.40182702712261
 20
116.311788452888
 30
0.0
 11
151.40182702712261
 21
107.31178845288851
 31
0.0
  0
LINE
  5
6B4B
  8
1
  6
HIDDEN
 10
103.59474647818379
 20
116.311788452888
 30
0.0
 11
79.401827027122636
 21
116.311788452888
 31
0.0
  0
LINE
  5
6B4C
  8
1
  6
HIDDEN
 10
103.59474647818379
 20
116.311788452888
 30
0.0
 11
107.12028218147771
 21
117.311788452888
 31
0.0
  0
LINE
  5
6B4D
  8
1
 10
103.59474647818379
 20
107.31178845288881
 30
0.0
 11
103.59474647818379
 21
81.311788452881729
 31
0.0
  0
LINE
  5
6B4E
  8
1
  6
HIDDEN
 10
79.401827027122636
 20
116.311788452888
 30
0.0
 11
80.401827027122636
 21
117.311788452888
 31
0.0
  0
LINE
  5
6B4F
  8
1
 10
79.40182702712309
 20
107.311788452889
 30
0.0
 11
79.401827027123545
 21
81.311788452881729
 31
0.0
  0
LINE
  5
6B50
  8
1
 10
40.401827027120817
 20
81.311788452881729
 30
0.0
 11
40.401827027120817
 21
75.311788452881729
 31
0.0
  0
LINE
  5
6B51
  8
1
 10
40.401827027120817
 20
75.311788452881729
 30
0.0
 11
40.401827027120817
 21
69.311788452881714
 31
0.0
  0
LINE
  5
6B52
  8
1
  6
HIDDEN
 10
123.73352990731379
 20
117.311788452888
 30
0.0
 11
127.2590656105949
 21
116.311788452888
 31
0.0
  0
LINE
  5
6B53
  8
1
 10
127.2590656105949
 20
107.31178845288861
 30
0.0
 11
127.2590656105949
 21
81.311788452881729
 31
0.0
  0
LINE
  5
6B54
  8
1
 62
     9
 10
109.67985711223081
 20
107.31178845288871
 30
0.0
 11
127.2590656105949
 21
81.311788452881729
 31
0.0
  0
LINE
  5
6B55
  8
1
 62
     9
 10
121.1739549765479
 20
107.31178845288871
 30
0.0
 11
103.59474647818379
 21
81.311788452881729
 31
0.0
  0
ARC
  5
6B58
  8
1
 10
80.901827027123105
 20
120.31178845288861
 30
0.0
 40
1.0
 50
270.0
 51
0.0000000000065138
  0
LINE
  5
6B59
  8
1
 10
81.90182702712309
 20
120.311788452889
 30
0.0
 11
81.90182702712309
 21
122.311788452889
 31
0.0
  0
ARC
  5
6B5A
  8
1
 10
84.40182702712309
 20
128.81178845288881
 30
0.0
 40
2.5
 50
180.0
 51
270.0
  0
ARC
  5
6B5B
  8
1
 10
85.151827027123545
 20
125.561788452889
 30
0.0
 40
0.75
 50
270.0
 51
90.0
  0
ARC
  5
6B5C
  8
1
 10
84.40182702712309
 20
122.311788452889
 30
0.0
 40
2.5
 50
90.0
 51
180.0
  0
LINE
  5
6B5D
  8
1
 10
76.90182702712309
 20
107.811788452889
 30
0.0
 11
76.90182702712309
 21
117.311788452889
 31
0.0
  0
LINE
  5
6B5E
  8
1
 10
79.90182702712309
 20
107.311788452889
 30
0.0
 11
77.40182702712309
 21
107.311788452889
 31
0.0
  0
ARC
  5
6B5F
  8
1
 10
77.401827027123545
 20
107.81178845288861
 30
0.0
 40
0.5
 50
180.0
 51
270.0
  0
ARC
  5
6B60
  8
1
 10
78.901827027123545
 20
117.31178845288861
 30
0.0
 40
2.0
 50
90.0
 51
180.0
  0
LINE
  5
6B61
  8
1
 10
80.901827027123105
 20
119.311788452889
 30
0.0
 11
78.90182702712309
 21
119.311788452889
 31
0.0
  0
LINE
  5
6B62
  8
1
  6
HIDDEN
 10
79.401827027122636
 20
116.311788452888
 30
0.0
 11
79.40182702712309
 21
107.311788452889
 31
0.0
  0
LINE
  5
6B63
  8
1
  6
HIDDEN
 62
     9
 10
121.1739549765479
 20
107.31178845288871
 30
0.0
 11
127.2590656105949
 21
116.311788452888
 31
0.0
  0
LINE
  5
6B64
  8
1
  6
HIDDEN
 62
     9
 10
109.67985711223081
 20
107.31178845288871
 30
0.0
 11
103.59474647818379
 21
116.311788452888
 31
0.0
  0
LINE
  5
6B65
  8
1
  6
HIDDEN
 10
103.59474647818379
 20
107.31178845288881
 30
0.0
 11
103.59474647818379
 21
116.311788452888
 31
0.0
  0
LINE
  5
6B66
  8
1
  6
HIDDEN
 10
127.2590656105949
 20
107.31178845288861
 30
0.0
 11
127.2590656105949
 21
116.311788452888
 31
0.0
  0
LINE
  5
6B67
  8
1
  6
HIDDEN
 10
149.40182702712261
 20
117.311788452888
 30
0.0
 11
80.401827027122636
 21
117.311788452888
 31
0.0
  0
LINE
  5
6B68
  8
1
  6
HIDDEN
 10
151.40182702712261
 20
116.311788452888
 30
0.0
 11
127.2590656105949
 21
116.311788452888
 31
0.0
  0
LINE
  5
6B6A
  8
1
 10
80.901827027123105
 20
119.311788452889
 30
0.0
 11
149.90182702712301
 21
119.311788452889
 31
0.0
  0
LINE
  5
6B6B
  8
1
 10
84.40182702712309
 20
126.311788452889
 30
0.0
 11
146.40182702712301
 21
126.3117884528874
 31
0.0
  0
LINE
  5
6B6C
  8
1
 10
84.40182702712309
 20
124.811788452889
 30
0.0
 11
146.40182702712261
 21
124.8117884528872
 31
0.0
  0
LINE
  5
6B6D
  8
1
 10
79.90182702712309
 20
107.311788452889
 30
0.0
 11
150.90182702712261
 21
107.31178845288851
 31
0.0
  0
LINE
  5
6B6E
  8
1
 10
190.40182702712079
 20
81.311788452881729
 30
0.0
 11
190.40182702712079
 21
75.311788452881729
 31
0.0
  0
LINE
  5
6B6F
  8
1
 10
190.40182702712079
 20
75.311788452881729
 30
0.0
 11
190.4018270271217
 21
69.311788452880819
 31
0.0
  0
LINE
  5
6B70
  8
1
 10
233.93978353638201
 20
81.311788452881729
 30
0.0
 11
233.93978353638201
 21
75.311788452881729
 31
0.0
  0
LINE
  5
6B71
  8
1
 10
233.93978353638201
 20
75.311788452881729
 30
0.0
 11
233.93978353638201
 21
69.311788452881714
 31
0.0
  0
LINE
  5
6B72
  8
1
 10
157.77170000820661
 20
156.28701892466211
 30
0.0
 11
160.43195404606371
 21
151.6793237700565
 31
0.0
  0
ARC
  5
6B73
  8
1
 10
159.101827027127
 20
164.511788452796
 30
0.0
 40
2.0
 50
89.999999999895778
 51
180.0000000000521
  0
ARC
  5
6B74
  8
1
 10
159.10182702710509
 20
190.5117884527896
 30
0.0
 40
2.0
 50
180.0000000000521
 51
270.0
  0
LINE
  5
6B76
  8
1
 10
68.701827027107356
 20
136.31178845266521
 30
0.0
 11
162.10182702713419
 21
136.3117884528144
 31
0.0
  0
LINE
  5
6B77
  8
1
 10
162.10182702715059
 20
138.01178845289149
 30
0.0
 11
68.701827027125546
 21
138.01178845289149
 31
0.0
  0
LINE
  5
6B78
  8
1
 10
141.31136120199511
 20
133.81178845280891
 30
0.0
 11
159.10182702713789
 21
133.81178845280891
 31
0.0
  0
LINE
  5
6B79
  8
CENTER
 62
     9
 10
237.77189804720271
 20
177.51178845289419
 30
0.0
 11
88.310329953957066
 21
177.51178845289419
 31
0.0
  0
LINE
  5
6B7A
  8
1
 10
40.401827027126267
 20
256.31178845288309
 30
0.0
 11
190.40182702712619
 21
256.31178845288309
 31
0.0
  0
LINE
  5
6B7B
  8
1
 10
40.401827027126267
 20
268.31178845288298
 30
0.0
 11
190.40182702712619
 21
268.31178845288213
 31
0.0
  0
LINE
  5
6B7D
  8
1
 10
59.901827027158099
 20
173.0117884528928
 30
0.0
 11
60.901827027158113
 21
173.0117884528928
 31
0.0
  0
LINE
  5
6B7E
  8
1
 10
59.901827027158099
 20
166.01178845289269
 30
0.0
 11
59.901827027158099
 21
173.0117884528928
 31
0.0
  0
LINE
  5
6B7F
  8
1
 10
60.901827027158113
 20
166.01178845289269
 30
0.0
 11
59.901827027158099
 21
166.01178845289269
 31
0.0
  0
LINE
  5
6B80
  8
1
 10
60.901827027158113
 20
173.0117884528928
 30
0.0
 11
60.901827027158113
 21
166.01178845289269
 31
0.0
  0
LINE
  5
6B81
  8
1
 10
60.901827027158113
 20
174.0117884528928
 30
0.0
 11
61.701827027158288
 21
174.0117884528928
 31
0.0
  0
LINE
  5
6B82
  8
1
 10
60.901827027158113
 20
165.0117884528928
 30
0.0
 11
60.901827027158113
 21
174.0117884528928
 31
0.0
  0
LINE
  5
6B83
  8
1
 10
61.701827027158288
 20
165.0117884528928
 30
0.0
 11
60.901827027158113
 21
165.0117884528928
 31
0.0
  0
LINE
  5
6B84
  8
1
 10
61.701827027158288
 20
174.0117884528928
 30
0.0
 11
61.701827027158288
 21
165.0117884528928
 31
0.0
  0
LINE
  5
6B85
  8
1
 10
58.838903044194922
 20
172.95608296739829
 30
0.0
 11
59.901827027158099
 21
173.0117884528928
 31
0.0
  0
ARC
  5
6B86
  8
1
 10
58.906939787310868
 20
171.65786457221751
 30
0.0
 40
1.3
 50
93.000000000005784
 51
163.81670078022231
  0
LINE
  5
6B87
  8
1
 10
59.901827027158099
 20
166.01178845289269
 30
0.0
 11
58.838903044194922
 21
166.06749393838621
 31
0.0
  0
ARC
  5
6B88
  8
1
 10
58.906939787310868
 20
167.36571233356699
 30
0.0
 40
1.3
 50
196.18329921977761
 51
266.9999999999942
  0
ARC
  5
6B89
  8
1
 10
66.301827027158652
 20
169.5117884528928
 30
0.0
 40
8.9999999999998312
 50
163.81670078022231
 51
196.18329921977761
  0
LINE
  5
6B8A
  8
1
 10
59.901827027158099
 20
173.0117884528928
 30
0.0
 11
59.901827027158099
 21
166.01178845289269
 31
0.0
  0
LINE
  5
6B8B
  8
CENTER
 10
63.557702396024062
 20
169.51178845289229
 30
0.0
 11
57.62048480026715
 21
169.5117884528932
 31
0.0
  0
LINE
  5
6B8C
  8
1
 10
73.701827027158288
 20
175.51178845289229
 30
0.0
 11
73.701827027158288
 21
163.5117884528932
 31
0.0
  0
LINE
  5
6B8D
  8
1
 10
61.701827027158288
 20
163.5117884528932
 30
0.0
 11
73.701827027157364
 21
163.51178845289141
 31
0.0
  0
LINE
  5
6B8E
  8
1
 10
61.701827027158288
 20
175.5117884528932
 30
0.0
 11
73.701827027158288
 21
175.5117884528932
 31
0.0
  0
LINE
  5
6B8F
  8
1
 10
61.701827027158288
 20
175.51178845289229
 30
0.0
 11
61.701827027158288
 21
163.5117884528932
 31
0.0
  0
LINE
  5
6B90
  8
CENTER
 10
53.324057668115529
 20
169.51178845289289
 30
0.0
 11
78.118268947300734
 21
169.51178845289229
 31
0.0
  0
ARC
  5
6B91
  8
1
 10
157.4018270271317
 20
132.31178845280891
 30
0.0
 40
1.5
 50
90.0
 51
113.8649254161182
  0
LINE
  5
6B92
  8
1
 10
155.21099069677439
 20
132.98278485638701
 30
0.0
 11
156.7949542748938
 21
133.68354115012491
 31
0.0
  0
ARC
  5
6B93
  8
1
 10
154.40182702712619
 20
134.81178845280891
 30
0.0
 40
2.0
 50
270.0
 51
293.86492541611818
  0
ARC
  5
6B94
  8
1
 10
152.1018270270651
 20
195.81178845294261
 30
0.0
 40
5.0
 50
0.0000000000521102
 51
44.999999999995389
  0
ARC
  5
6B95
  8
1
 10
162.10182702712879
 20
158.7870189246612
 30
0.0
 40
5.0
 50
180.0000000000521
 51
210.0000000000029
  0
LINE
  5
6B96
  8
1
 10
157.10182702713419
 20
164.51178845279421
 30
0.0
 11
157.10182702710151
 21
195.81178845294721
 31
0.0
  0
LINE
  5
6B97
  8
1
 10
157.10182702713061
 20
158.78701892465929
 30
0.0
 11
157.101827027127
 21
164.51178845279509
 31
0.0
  0
LINE
  5
6B98
  8
1
 10
151.4018270271244
 20
221.31178845288991
 30
0.0
 11
150.4018270271244
 21
220.31178845288991
 31
0.0
  0
LINE
  5
6B99
  8
1
 10
151.4018270271244
 20
256.31178845288309
 30
0.0
 11
151.4018270271244
 21
221.31178845288991
 31
0.0
  0
ARC
  5
6B9A
  8
1
 10
148.40182702712261
 20
132.31178845288861
 30
0.0
 40
0.5
 50
0.0
 51
90.0
  0
ARC
  5
6B9B
  8
1
 10
115.4018270271371
 20
170.60379316388909
 30
0.0
 40
21.424469393830019
 50
218.29524487041209
 51
321.70475512962952
  0
ARC
  5
6B9C
  8
1
 10
74.70182702713646
 20
149.17932377005459
 30
0.0
 40
5.0
 50
149.99999999999699
 51
179.9999999999479
  0
LINE
  5
6B9D
  8
1
 10
73.401827027126274
 20
133.81178845280891
 30
0.0
 11
141.31136120200239
 21
133.81178845280891
 31
0.0
  0
LINE
  5
6B9E
  8
1
 10
69.701827027129184
 20
138.51178845289061
 30
0.0
 11
69.70182702713646
 21
149.1793237700592
 31
0.0
  0
ARC
  5
6B9F
  8
1
 10
69.201827027129184
 20
138.51178845289061
 30
0.0
 40
0.5
 50
270.0
 51
359.99999999994782
  0
LINE
  5
6BA0
  8
1
 10
68.701827027107356
 20
136.3117884528198
 30
0.0
 11
68.701827027107356
 21
136.8117884528198
 31
0.0
  0
LINE
  5
6BA1
  8
1
 10
69.20182702710008
 20
136.3117884528198
 30
0.0
 11
68.701827027107356
 21
136.3117884528198
 31
0.0
  0
ARC
  5
6BA2
  8
1
 10
69.20182702710008
 20
135.8117884528198
 30
0.0
 40
0.5
 50
0.0
 51
90.0
  0
LINE
  5
6BA3
  8
1
 10
68.701827027125546
 20
138.01178845289149
 30
0.0
 11
68.701827027123727
 21
136.81178845289261
 31
0.0
  0
LINE
  5
6BA4
  8
1
 10
76.401827027122636
 20
132.81178845279621
 30
0.0
 11
93.901827027118998
 21
132.81178845279621
 31
0.0
  0
LINE
  5
6BA5
  8
1
 10
73.401827027122636
 20
133.81178845279621
 30
0.0
 11
71.701827027105537
 21
133.8117884527953
 31
0.0
  0
ARC
  5
6BA6
  8
1
 10
73.401827027126274
 20
132.31178845279439
 30
0.0
 40
1.5
 50
66.135074583881718
 51
90.0
  0
LINE
  5
6BA7
  8
1
 10
75.592663357474521
 20
132.98278485637431
 30
0.0
 11
74.00869977936236
 21
133.6835411501103
 31
0.0
  0
ARC
  5
6BA8
  8
1
 10
76.401827027126274
 20
134.81178845279621
 30
0.0
 40
2.0
 50
246.1350745838817
 51
270.0
  0
ARC
  5
6BA9
  8
1
 10
71.701827027103718
 20
135.8117884527953
 30
0.0
 40
2.0
 50
180.0
 51
270.0
  0
ARC
  5
6BAA
  8
1
 10
102.58049149914579
 20
160.33581857942471
 30
0.0
 40
5.0
 50
180.0
 51
216.99988178811719
  0
ARC
  5
6BAB
  8
1
 10
98.001827027121195
 20
215.71178845289219
 30
0.0
 40
0.4
 50
270.0
 51
0.0
  0
LINE
  5
6BAC
  8
1
 10
96.401827027122636
 20
215.31178845288991
 30
0.0
 11
134.40182702712261
 21
215.3117884528917
 31
0.0
  0
ARC
  5
6BAD
  8
1
 10
102.580491499164
 20
160.3358185794238
 30
0.0
 40
5.0
 50
180.0
 51
216.9998817880703
  0
ARC
  5
6BAE
  8
1
 10
102.58049149914579
 20
190.8117884529463
 30
0.0
 40
5.0
 50
90.0
 51
180.0
  0
LINE
  5
6BAF
  8
1
 10
138.401827027119
 20
214.5117884528924
 30
0.0
 11
92.401827027122636
 21
214.51178845288609
 31
0.0
  0
ARC
  5
6BB0
  8
1
 10
78.701827027180116
 20
195.81178845294261
 30
0.0
 40
5.0
 50
135.0000000000046
 51
179.9999999999479
  0
ARC
  5
6BB1
  8
1
 10
92.401827027122636
 20
209.51178845288521
 30
0.0
 40
5.0
 50
90.0
 51
135.0000000000046
  0
LINE
  5
6BB2
  8
1
 10
88.866293121189301
 20
213.04732235881849
 30
0.0
 11
75.166293121246781
 21
199.347322358875
 31
0.0
  0
LINE
  5
6BB3
  8
1
 10
96.401827027122636
 20
215.3117884528917
 30
0.0
 11
96.401827027122636
 21
214.511788452887
 31
0.0
  0
LINE
  5
6BB4
  8
1
 10
73.031954046071405
 20
156.28701892466211
 30
0.0
 11
70.371700008214248
 21
151.6793237700565
 31
0.0
  0
ARC
  5
6BB5
  8
1
 10
68.701827027149193
 20
158.7870189246612
 30
0.0
 40
5.0
 50
329.99999999999699
 51
359.99999999994782
  0
LINE
  5
6BB6
  8
1
 10
97.580491499165873
 20
160.3358185794238
 30
0.0
 11
97.580491499165873
 21
190.7407206410814
 31
0.0
  0
LINE
  5
6BB7
  8
1
 10
73.701827027180116
 20
195.8117884529463
 30
0.0
 11
73.701827027158288
 21
169.5117884528924
 31
0.0
  0
LINE
  5
6BB8
  8
1
 10
73.701827027149193
 20
158.78701892465659
 30
0.0
 11
73.701827027158288
 21
169.5117884528924
 31
0.0
  0
ARC
  5
6BB9
  8
1
 10
138.40182702712079
 20
209.51178845288521
 30
0.0
 40
5.0
 50
44.999999999995389
 51
90.0
  0
ARC
  5
6BBA
  8
1
 10
128.2231625550921
 20
160.3358185794265
 30
0.0
 40
5.0
 50
323.00011821202332
 51
0.0
  0
LINE
  5
6BBB
  8
1
 10
102.58049149914579
 20
195.8117884529463
 30
0.0
 11
128.22316255509389
 21
195.81178845294721
 31
0.0
  0
ARC
  5
6BBC
  8
1
 10
132.8018270271204
 20
215.71178845289219
 30
0.0
 40
0.4
 50
180.0
 51
270.0
  0
LINE
  5
6BBD
  8
1
 10
134.40182702712261
 20
215.3117884528917
 30
0.0
 11
134.40182702712261
 21
214.5117884528924
 31
0.0
  0
LINE
  5
6BBE
  8
1
 10
98.401827027122636
 20
220.31178845288991
 30
0.0
 11
98.401827027122636
 21
215.71178845289131
 31
0.0
  0
LINE
  5
6BBF
  8
1
 10
132.40182702712261
 20
220.31178845288991
 30
0.0
 11
132.40182702712261
 21
215.71178845289131
 31
0.0
  0
LINE
  5
6BC0
  8
1
 10
104.6252174233304
 20
158.78701892465841
 30
0.0
 11
126.5424062838501
 21
158.78701892465841
 31
0.0
  0
ARC
  5
6BC1
  8
1
 10
128.22316255511029
 20
160.3358185794265
 30
0.0
 40
5.0
 50
323.00011821192948
 51
0.0
  0
ARC
  5
6BC2
  8
1
 10
128.22316255509389
 20
190.8117884529463
 30
0.0
 40
5.0
 50
0.0
 51
90.0
  0
LINE
  5
6BC3
  8
1
 10
133.22316255511029
 20
160.3358185794265
 30
0.0
 11
133.22316255511029
 21
190.7407206410814
 31
0.0
  0
LINE
  5
6BC4
  8
1
 10
40.401827027126267
 20
262.31178845288298
 30
0.0
 11
40.401827027125357
 21
268.311788452884
 31
0.0
  0
LINE
  5
6BC5
  8
1
 10
40.401827027126267
 20
256.31178845288309
 30
0.0
 11
40.401827027126267
 21
262.31178845288298
 31
0.0
  0
LINE
  5
6BC6
  8
1
 10
79.401827027124455
 20
221.31178845288991
 30
0.0
 11
80.401827027124455
 21
220.31178845288991
 31
0.0
  0
LINE
  5
6BC7
  8
1
 10
79.401827027124455
 20
256.31178845288298
 30
0.0
 11
79.401827027124455
 21
221.31178845288991
 31
0.0
  0
CIRCLE
  5
6BC8
  8
1
 10
115.40182702712259
 20
177.51178845289419
 30
0.0
 40
14.449999999999999
  0
CIRCLE
  5
6BC9
  8
1
 10
115.40182702712259
 20
177.51178845291329
 30
0.0
 40
12.25
  0
LINE
  5
6BCA
  8
1
 10
82.401827027123076
 20
132.81178845288849
 30
0.0
 11
89.40182702712309
 21
132.81178845288849
 31
0.0
  0
ARC
  5
6BCB
  8
1
 10
82.401827027123545
 20
132.31178845288861
 30
0.0
 40
0.5
 50
90.0
 51
180.0
  0
LINE
  5
6BCC
  8
1
 10
89.40182702712309
 20
132.81178845288849
 30
0.0
 11
141.40182702712261
 21
132.81178845288849
 31
0.0
  0
LINE
  5
6BCD
  8
1
 10
93.901827027117164
 20
132.81178845280891
 30
0.0
 11
154.40182702712619
 21
132.81178845280891
 31
0.0
  0
LINE
  5
6BCE
  8
1
 10
141.93736093305409
 20
213.04732235881849
 30
0.0
 11
155.63736093299659
 21
199.347322358875
 31
0.0
  0
LINE
  5
6BCF
  8
1
 10
80.401827027124455
 20
220.31178845288991
 30
0.0
 11
150.4018270271244
 21
220.31178845288991
 31
0.0
  0
LINE
  5
6BD0
  8
1
 10
151.4018270271244
 20
221.31178845288991
 30
0.0
 11
79.401827027124455
 21
221.31178845288991
 31
0.0
  0
LINE
  5
6BD3
  8
1
 10
148.40182702712261
 20
132.81178845288849
 30
0.0
 11
141.40182702712261
 21
132.81178845288849
 31
0.0
  0
LINE
  5
6BD4
  8
1
 10
215.10182702712689
 20
182.01178845218669
 30
0.0
 11
215.10182702712689
 21
173.01178845218669
 31
0.0
  0
LINE
  5
6BD5
  8
1
 10
230.05089197340931
 20
173.51178845291329
 30
0.0
 11
215.10182702712689
 21
173.51178845291329
 31
0.0
  0
LINE
  5
6BD6
  8
1
 10
230.05089197340931
 20
181.51178845291329
 30
0.0
 11
215.10182702712689
 21
181.51178845291329
 31
0.0
  0
ARC
  5
6BD7
  8
1
 10
156.1018270271415
 20
149.17932377005459
 30
0.0
 40
5.0
 50
0.0000000000521102
 51
30.000000000002931
  0
LINE
  5
6BD8
  8
1
 10
162.10182702713419
 20
136.3117884528144
 30
0.0
 11
162.10182702713419
 21
136.8117884528144
 31
0.0
  0
ARC
  5
6BD9
  8
1
 10
161.6018270271415
 20
135.81178845281261
 30
0.0
 40
0.5
 50
90.0
 51
180.0
  0
LINE
  5
6BDA
  8
1
 10
161.1018270271488
 20
138.5117884528851
 30
0.0
 11
161.1018270271415
 21
149.1793237700592
 31
0.0
  0
LINE
  5
6BDB
  8
1
 10
162.10182702715059
 20
138.01178845288601
 30
0.0
 11
162.10182702715241
 21
136.8117884528871
 31
0.0
  0
ARC
  5
6BDC
  8
1
 10
161.6018270271488
 20
138.5117884528851
 30
0.0
 40
0.5
 50
180.0000000000521
 51
270.0
  0
ARC
  5
6BDD
  8
1
 10
159.10182702713789
 20
135.81178845280891
 30
0.0
 40
2.0
 50
270.0
 51
0.0
  0
LINE
  5
6BDE
  8
1
 10
161.10182702714329
 20
166.51178845279239
 30
0.0
 11
159.1018270271488
 21
166.51178845279421
 31
0.0
  0
LINE
  5
6BDF
  8
1
 10
165.10182702724339
 20
187.51178845279151
 30
0.0
 11
162.10182702724339
 21
187.51178845282419
 31
0.0
  0
LINE
  5
6BE0
  8
1
 10
165.10182702713419
 20
167.5117884527906
 30
0.0
 11
162.10182702713419
 21
167.5117884527906
 31
0.0
  0
LINE
  5
6BE1
  8
1
 10
165.10182702713419
 20
188.5117884527906
 30
0.0
 11
169.10182702713419
 21
188.5117884527906
 31
0.0
  0
LINE
  5
6BE2
  8
1
 10
165.10182702713419
 20
166.51178845279051
 30
0.0
 11
169.10182702713419
 21
166.51178845279051
 31
0.0
  0
LINE
  5
6BE3
  8
1
 10
165.10182702713419
 20
166.51178845279051
 30
0.0
 11
165.10182702713419
 21
188.5117884527906
 31
0.0
  0
LINE
  5
6BE4
  8
1
 10
162.10182702713419
 20
166.51178845279051
 30
0.0
 11
162.10182702713419
 21
188.5117884527906
 31
0.0
  0
LINE
  5
6BE5
  8
1
 62
     9
 10
169.10182702713419
 20
187.3475211335942
 30
0.0
 11
167.93755970790511
 21
188.51178845282331
 31
0.0
  0
LINE
  5
6BE6
  8
1
 62
     9
 10
169.10182702713419
 20
167.67605577201971
 30
0.0
 11
167.93755970790511
 21
166.51178845279051
 31
0.0
  0
LINE
  5
6BE7
  8
1
 10
185.10182702683949
 20
186.5098372314566
 30
0.0
 11
184.1018270268068
 21
187.57428845279151
 31
0.0
  0
LINE
  5
6BE8
  8
1
 10
185.10182702713419
 20
168.5137396741581
 30
0.0
 11
184.10182702713419
 21
167.44928845279051
 31
0.0
  0
LINE
  5
6BE9
  8
1
 62
     9
 10
169.10182702713419
 20
187.3475211335614
 30
0.0
 11
185.10182702713419
 21
186.34752113356149
 31
0.0
  0
LINE
  5
6BEA
  8
1
 62
     9
 10
169.10182702713419
 20
167.67605577201971
 30
0.0
 11
185.10182702713419
 21
168.67605577201971
 31
0.0
  0
LINE
  5
6BEB
  8
1
 10
184.10182702713419
 20
167.44928845279051
 30
0.0
 11
184.10182702713419
 21
187.5742884527906
 31
0.0
  0
LINE
  5
6BEC
  8
1
 10
169.10182702713419
 20
166.51178845279051
 30
0.0
 11
184.10182702713419
 21
167.44928845278969
 31
0.0
  0
LINE
  5
6BED
  8
1
 10
169.10182702713419
 20
188.5117884527906
 30
0.0
 11
184.10182702678861
 21
187.5742884528124
 31
0.0
  0
LINE
  5
6BEE
  8
1
 10
185.10182702713419
 20
168.5137396741581
 30
0.0
 11
185.10182702713419
 21
186.50983723114379
 31
0.0
  0
LINE
  5
6BEF
  8
1
 10
169.10182702713419
 20
166.51178845279051
 30
0.0
 11
169.10182702713419
 21
188.5117884527906
 31
0.0
  0
LINE
  5
6BF0
  8
1
 10
161.10182702713419
 20
166.51178845279051
 30
0.0
 11
162.10182702713419
 21
166.51178845279051
 31
0.0
  0
LINE
  5
6BF1
  8
1
 10
161.10182702713419
 20
188.5117884527906
 30
0.0
 11
162.10182702713419
 21
188.5117884527906
 31
0.0
  0
LINE
  5
6BF2
  8
1
 10
161.10182702712331
 20
166.5117884527933
 30
0.0
 11
159.101827027127
 21
166.51178845279509
 31
0.0
  0
LINE
  5
6BF3
  8
1
 10
161.10182702711239
 20
188.51178845279239
 30
0.0
 11
159.10182702710509
 21
188.51178845279239
 31
0.0
  0
LINE
  5
6BF4
  8
1
 10
191.60182702712791
 20
170.0117884526509
 30
0.0
 11
191.60182702712791
 21
185.0117884526509
 31
0.0
  0
LINE
  5
6BF5
  8
1
 10
185.60182702712689
 20
169.51178845265099
 30
0.0
 11
185.60182702712791
 21
185.5117884526509
 31
0.0
  0
LINE
  5
6BF6
  8
1
 10
188.601827027127
 20
169.51178845265099
 30
0.0
 11
188.60182702712791
 21
185.5117884526509
 31
0.0
  0
LINE
  5
6BF7
  8
1
 10
191.10182702712791
 20
173.6388051064425
 30
0.0
 11
188.601827027127
 21
173.6388051064425
 31
0.0
  0
LINE
  5
6BF8
  8
1
 10
191.10182702712791
 20
181.38477179885939
 30
0.0
 11
188.60182702712791
 21
181.38477179885939
 31
0.0
  0
LINE
  5
6BF9
  8
1
 10
188.60182702712791
 20
185.5117884526509
 30
0.0
 11
191.10182702712791
 21
185.5117884526509
 31
0.0
  0
LINE
  5
6BFA
  8
1
 10
188.60182702712791
 20
169.51178845265099
 30
0.0
 11
191.10182702712791
 21
169.51178845265099
 31
0.0
  0
LINE
  5
6BFB
  8
1
 10
188.601827027127
 20
170.51178845265099
 30
0.0
 11
185.60182702712689
 21
170.51178845265099
 31
0.0
  0
LINE
  5
6BFC
  8
1
 10
188.601827027127
 20
184.5117884526509
 30
0.0
 11
185.60182702712689
 21
184.5117884526509
 31
0.0
  0
LINE
  5
6BFD
  8
1
 10
191.101827027127
 20
169.51178845265099
 30
0.0
 11
191.10182702712791
 21
173.6388051064425
 31
0.0
  0
LINE
  5
6BFE
  8
1
 10
191.10182702712791
 20
181.38477179885939
 30
0.0
 11
191.10182702712791
 21
185.5117884526509
 31
0.0
  0
LINE
  5
6BFF
  8
1
 10
191.10182702712791
 20
173.6388051064425
 30
0.0
 11
191.60182702712689
 21
174.81920604908299
 31
0.0
  0
LINE
  5
6C00
  8
1
 10
191.10182702712791
 20
181.38477179885939
 30
0.0
 11
191.60182702712689
 21
180.2043708562189
 31
0.0
  0
LINE
  5
6C01
  8
1
 10
191.10182702712791
 20
169.51178845265099
 30
0.0
 11
191.60182702712791
 21
170.0117884526509
 31
0.0
  0
LINE
  5
6C02
  8
1
 10
191.60182702712791
 20
185.0117884526509
 30
0.0
 11
191.10182702712791
 21
185.5117884526509
 31
0.0
  0
LINE
  5
6C03
  8
1
 10
188.601827027127
 20
173.6388051064425
 30
0.0
 11
191.10182702712791
 21
181.38477179885939
 31
0.0
  0
LINE
  5
6C04
  8
1
 10
191.10182702712791
 20
173.6388051064425
 30
0.0
 11
188.60182702712791
 21
181.38477179885939
 31
0.0
  0
ARC
  5
6C05
  8
1
 10
214.101827027127
 20
182.01178845264999
 30
0.0
 40
1.0
 50
0.0
 51
90.0
  0
ARC
  5
6C06
  8
1
 10
214.101827027127
 20
173.01178845264999
 30
0.0
 40
1.0
 50
270.0
 51
0.0
  0
LINE
  5
6C07
  8
1
 10
191.60182702712791
 20
172.01178845264999
 30
0.0
 11
214.101827027127
 21
172.01178845264999
 31
0.0
  0
LINE
  5
6C08
  8
1
 10
191.60182702712791
 20
183.01178845265011
 30
0.0
 11
214.101827027127
 21
183.01178845265011
 31
0.0
  0
LINE
  5
6C09
  8
1
 10
185.10182702713419
 20
185.5117884526509
 30
0.0
 11
185.60182702712791
 21
185.5117884526509
 31
0.0
  0
LINE
  5
6C0A
  8
1
 10
185.10182702713419
 20
169.51178845265099
 30
0.0
 11
185.60182702712791
 21
169.51178845265099
 31
0.0
  0
LINE
  5
6C0B
  8
1
 10
190.40182702712619
 20
262.31178845288298
 30
0.0
 11
190.40182702712619
 21
268.31178845288298
 31
0.0
  0
LINE
  5
6C0C
  8
1
 10
190.40182702712619
 20
256.31178845288309
 30
0.0
 11
190.40182702712619
 21
262.31178845288298
 31
0.0
  0
LINE
  5
6C11
  8
1
 10
233.93978353638559
 20
256.31178845288309
 30
0.0
 11
233.93978353638559
 21
262.31178845288298
 31
0.0
  0
LINE
  5
6C12
  8
1
 10
233.93978353638559
 20
262.31178845288298
 30
0.0
 11
233.93978353638471
 21
268.311788452884
 31
0.0
  0
LINE
  5
6C13
  8
1
 10
367.4397835363838
 20
128.81178845288849
 30
0.0
 11
367.4397835363838
 21
132.31178845288849
 31
0.0
  0
LINE
  5
6C14
  8
1
 10
300.4397835363842
 20
128.81178845288849
 30
0.0
 11
300.4397835363842
 21
132.31178845288849
 31
0.0
  0
LINE
  5
6C15
  8
CENTER
 10
333.9397835363838
 20
102.8631187187663
 30
0.0
 11
333.93978353638431
 21
140.7153735972804
 31
0.0
  0
LINE
  5
6C17
  8
CENTER
 10
333.9397835363838
 20
61.533867944451011
 30
0.0
 11
333.93978353638403
 21
273.83026614002682
 31
0.0
  0
LINE
  5
6C18
  8
1
 10
299.43978353638431
 20
119.311788452889
 30
0.0
 11
368.43978353638431
 21
119.311788452889
 31
0.0
  0
LINE
  5
6C19
  8
1
 10
372.4397835363838
 20
107.81178845288851
 30
0.0
 11
372.4397835363838
 21
117.31178845288851
 31
0.0
  0
LINE
  5
6C1A
  8
1
 10
368.43978353638431
 20
119.31178845288851
 30
0.0
 11
370.4397835363838
 21
119.31178845288851
 31
0.0
  0
LINE
  5
6C1B
  8
1
 10
369.4397835363838
 20
107.31178845288851
 30
0.0
 11
371.9397835363838
 21
107.31178845288851
 31
0.0
  0
LINE
  5
6C1C
  8
1
 10
367.4397835363838
 20
120.311788452889
 30
0.0
 11
367.43978353638431
 21
122.311788452889
 31
0.0
  0
ARC
  5
6C1D
  8
1
 10
371.93978353638431
 20
107.81178845288861
 30
0.0
 40
0.5
 50
270.0
 51
0.0
  0
ARC
  5
6C1E
  8
1
 10
370.43978353638431
 20
117.31178845288861
 30
0.0
 40
2.0
 50
0.0
 51
90.0
  0
ARC
  5
6C1F
  8
1
 10
368.43978353638431
 20
120.31178845288861
 30
0.0
 40
1.0
 50
179.99999999999341
 51
270.0
  0
ARC
  5
6C20
  8
1
 10
299.43978353638431
 20
120.31178845288861
 30
0.0
 40
1.0
 50
270.0
 51
0.0000000000065138
  0
LINE
  5
6C21
  8
1
 10
300.4397835363842
 20
120.311788452889
 30
0.0
 11
300.4397835363842
 21
122.311788452889
 31
0.0
  0
LINE
  5
6C22
  8
1
 10
295.43978353638431
 20
107.811788452889
 30
0.0
 11
295.43978353638431
 21
117.311788452889
 31
0.0
  0
LINE
  5
6C23
  8
1
 10
298.43978353638431
 20
107.311788452889
 30
0.0
 11
295.93978353638431
 21
107.311788452889
 31
0.0
  0
ARC
  5
6C24
  8
1
 10
295.93978353638482
 20
107.81178845288861
 30
0.0
 40
0.5
 50
180.0
 51
270.0
  0
ARC
  5
6C25
  8
1
 10
297.43978353638471
 20
117.31178845288861
 30
0.0
 40
2.0
 50
90.0
 51
180.0
  0
LINE
  5
6C26
  8
1
 10
299.43978353638431
 20
119.311788452889
 30
0.0
 11
297.43978353638431
 21
119.311788452889
 31
0.0
  0
LINE
  5
6C27
  8
1
 10
298.43978353638431
 20
107.311788452889
 30
0.0
 11
369.4397835363838
 21
107.31178845288851
 31
0.0
  0
LINE
  5
6C28
  8
1
 10
302.93978353638431
 20
126.311788452889
 30
0.0
 11
364.9397835363842
 21
126.3117884528873
 31
0.0
  0
LINE
  5
6C29
  8
1
 10
302.93978353638431
 20
124.811788452889
 30
0.0
 11
364.9397835363838
 21
124.8117884528872
 31
0.0
  0
ARC
  5
6C2A
  8
1
 10
364.9397835363842
 20
128.81178845288781
 30
0.0
 40
2.5
 50
270.0
 51
0.0
  0
ARC
  5
6C2B
  8
1
 10
364.9397835363838
 20
122.3117884528878
 30
0.0
 40
2.5
 50
359.99999999998693
 51
90.0
  0
ARC
  5
6C2C
  8
1
 10
364.1897835363838
 20
125.5617884528878
 30
0.0
 40
0.75
 50
90.0
 51
270.0
  0
ARC
  5
6C2D
  8
1
 10
302.93978353638431
 20
128.81178845288881
 30
0.0
 40
2.5
 50
180.0
 51
270.0
  0
ARC
  5
6C2E
  8
1
 10
303.68978353638471
 20
125.561788452889
 30
0.0
 40
0.75
 50
270.0
 51
90.0
  0
ARC
  5
6C2F
  8
1
 10
302.93978353638431
 20
122.311788452889
 30
0.0
 40
2.5
 50
90.0
 51
180.0
  0
LINE
  5
6C30
  8
1
 10
299.93978353638312
 20
107.311788452889
 30
0.0
 11
299.93978353638062
 21
81.311788452885253
 31
0.0
  0
LINE
  5
6C31
  8
1
 10
369.93978353638272
 20
107.31178845288851
 30
0.0
 11
369.93978353637971
 21
81.311788452878091
 31
0.0
  0
LINE
  5
6C32
  8
1
 10
312.43978353638022
 20
119.31178845288809
 30
0.0
 11
355.4397835363838
 21
119.3117884528853
 31
0.0
  0
LINE
  5
6C33
  8
1
 10
433.93978353638198
 20
81.311788452881729
 30
0.0
 11
433.93978353638198
 21
75.311788452881729
 31
0.0
  0
LINE
  5
6C34
  8
1
 10
433.93978353638198
 20
75.311788452881729
 30
0.0
 11
433.93978353638289
 21
69.311788452880819
 31
0.0
  0
LINE
  5
6C35
  8
1
 10
366.9397835363838
 20
132.81178845288849
 30
0.0
 11
359.9397835363838
 21
132.81178845288849
 31
0.0
  0
LINE
  5
6C36
  8
1
 10
300.93978353638431
 20
132.81178845288849
 30
0.0
 11
307.93978353638431
 21
132.81178845288849
 31
0.0
  0
ARC
  5
6C37
  8
1
 10
366.9397835363838
 20
132.31178845288861
 30
0.0
 40
0.5
 50
0.0
 51
90.0
  0
ARC
  5
6C38
  8
1
 10
300.93978353638471
 20
132.31178845288861
 30
0.0
 40
0.5
 50
90.0
 51
180.0
  0
LINE
  5
6C39
  8
1
 10
307.93978353638431
 20
132.81178845288849
 30
0.0
 11
359.9397835363838
 21
132.81178845288849
 31
0.0
  0
LINE
  5
6C3C
  8
1
 10
287.23978353639762
 20
163.2617884529038
 30
0.0
 11
288.23978353639939
 21
163.2617884529038
 31
0.0
  0
LINE
  5
6C3D
  8
1
 10
287.23978353640132
 20
191.7617884529038
 30
0.0
 11
288.23978353640132
 21
191.7617884529038
 31
0.0
  0
LINE
  5
6C3E
  8
1
 10
287.23978353639762
 20
163.2617884529038
 30
0.0
 11
288.23978353639939
 21
163.2617884529038
 31
0.0
  0
LINE
  5
6C3F
  8
1
 10
287.23978353639762
 20
163.2617884529038
 30
0.0
 11
287.23978353640132
 21
191.7617884529038
 31
0.0
  0
LINE
  5
6C40
  8
CENTER
 62
     9
 10
299.41320698852951
 20
177.5117884529038
 30
0.0
 11
286.0371457198184
 21
177.5117884529038
 31
0.0
  0
ARC
  5
6C41
  8
1
 10
290.23978353638131
 20
161.0617884529031
 30
0.0
 40
2.0
 50
359.99999999989581
 51
90.0
  0
ARC
  5
6C42
  8
1
 10
290.23978353641041
 20
193.96178845290271
 30
0.0
 40
2.0
 50
270.0
 51
359.99999999989581
  0
LINE
  5
6C43
  8
1
 10
290.23978353638307
 20
163.0617884529031
 30
0.0
 11
288.23978353639222
 21
163.0617884529031
 31
0.0
  0
LINE
  5
6C44
  8
1
 10
290.23978353640859
 20
191.96178845290271
 30
0.0
 11
288.23978353640859
 21
191.9617884529045
 31
0.0
  0
LINE
  5
6C45
  8
1
 10
319.5099136113954
 20
297.62113606183129
 30
0.0
 11
348.1095690355566
 21
290.02121635180418
 31
0.0
  0
LINE
  5
6C46
  8
1
 10
320.0235568263281
 20
299.55405371340203
 30
0.0
 11
348.6232122504893
 21
291.95413400337492
 31
0.0
  0
LINE
  5
6C47
  8
CENTER
 10
381.91640504187802
 20
324.82904379814062
 30
0.0
 11
367.96316203089322
 21
324.82904379814062
 31
0.0
  0
LINE
  5
6C48
  8
CENTER
 10
299.9164050418762
 20
324.82904379814062
 30
0.0
 11
285.9631620308914
 21
324.82904379814062
 31
0.0
  0
LINE
  5
6C49
  8
1
 10
326.93978353638431
 20
307.12904379812591
 30
0.0
 11
340.93978353638431
 21
307.12904379812591
 31
0.0
  0
LINE
  5
6C4A
  8
1
 10
326.93978353638448
 20
307.82904379814022
 30
0.0
 11
326.93978353638431
 21
306.62904379812591
 31
0.0
  0
LINE
  5
6C4B
  8
1
 10
340.93978353638448
 20
307.82904379814022
 30
0.0
 11
340.93978353638431
 21
306.62904379812591
 31
0.0
  0
LINE
  5
6C4C
  8
1
 10
326.93978353638431
 20
306.62904379812591
 30
0.0
 11
340.93978353638431
 21
306.62904379812591
 31
0.0
  0
LINE
  5
6C4D
  8
1
 10
328.43978353638312
 20
306.62904379812591
 30
0.0
 11
328.43978353638357
 21
297.31757057019013
 31
0.0
  0
LINE
  5
6C4E
  8
1
 10
339.43978353638357
 20
306.62904379812591
 30
0.0
 11
339.43978353638357
 21
294.3944893102784
 31
0.0
  0
LINE
  5
6C4F
  8
1
 10
369.93978353638357
 20
221.31178845288991
 30
0.0
 11
297.9397835363838
 21
221.31178845288991
 31
0.0
  0
LINE
  5
6C50
  8
1
 10
298.9397835363838
 20
220.31178845288991
 30
0.0
 11
368.9397835363838
 21
220.31178845288991
 31
0.0
  0
LINE
  5
6C51
  8
1
 10
369.93978353638329
 20
256.31178845288309
 30
0.0
 11
369.9397835363838
 21
221.31178845288991
 31
0.0
  0
LINE
  5
6C52
  8
1
 10
369.9397835363838
 20
221.31178845288991
 30
0.0
 11
368.9397835363838
 21
220.31178845288991
 31
0.0
  0
LINE
  5
6C53
  8
1
 10
297.9397835363838
 20
256.31178845288298
 30
0.0
 11
297.9397835363838
 21
221.31178845288991
 31
0.0
  0
LINE
  5
6C54
  8
1
 10
297.9397835363838
 20
221.31178845288991
 30
0.0
 11
298.9397835363838
 21
220.31178845288991
 31
0.0
  0
LINE
  5
6C55
  8
1
 10
340.9397835363838
 20
173.6388051066867
 30
0.0
 11
340.9397835363838
 21
181.38477179910271
 31
0.0
  0
LINE
  5
6C56
  8
1
 10
326.9397835363838
 20
173.6388051066867
 30
0.0
 11
326.9397835363838
 21
181.38477179910271
 31
0.0
  0
CIRCLE
  5
6C57
  8
1
 10
333.9397835363838
 20
177.51178845289419
 30
0.0
 40
8.0
  0
ARC
  5
6C58
  8
1
 10
333.9397835363838
 20
177.51178845289419
 30
0.0
 40
7.5
 50
201.03946978130139
 51
338.96053021869852
  0
ARC
  5
6C59
  8
1
 10
333.9397835363838
 20
177.51178845289419
 30
0.0
 40
7.5
 50
21.039469781301442
 51
158.96053021869849
  0
CIRCLE
  5
6C5A
  8
1
 10
333.9397835363838
 20
177.51178845289419
 30
0.0
 40
4.0
  0
CIRCLE
  5
6C5B
  8
1
 10
333.9397835363838
 20
177.51178845289419
 30
0.0
 40
5.5
  0
LINE
  5
6C5C
  8
1
 10
356.93978353638022
 20
214.5117884528924
 30
0.0
 11
310.9397835363838
 21
214.51178845288609
 31
0.0
  0
LINE
  5
6C5D
  8
1
 10
323.16317393259169
 20
158.78701892465841
 30
0.0
 11
345.08036279311131
 21
158.78701892465841
 31
0.0
  0
LINE
  5
6C5E
  8
1
 10
314.9397835363838
 20
215.31178845288991
 30
0.0
 11
352.9397835363838
 21
215.3117884528917
 31
0.0
  0
LINE
  5
6C5F
  8
1
 10
321.11844800840697
 20
195.8117884529463
 30
0.0
 11
346.76111906435511
 21
195.81178845294721
 31
0.0
  0
CIRCLE
  5
6C60
  8
1
 10
333.93978353638198
 20
177.51178845289419
 30
0.0
 40
11.0
  0
CIRCLE
  5
6C61
  8
1
 10
333.93978353638198
 20
177.51178845289419
 30
0.0
 40
9.8000000000000007
  0
CIRCLE
  5
6C62
  8
1
 10
333.93978353638198
 20
177.51178845289419
 30
0.0
 40
8.8000000000000007
  0
LINE
  5
6C63
  8
1
 10
316.11844800842698
 20
160.3358185794238
 30
0.0
 11
316.11844800842698
 21
190.7407206410814
 31
0.0
  0
ARC
  5
6C64
  8
1
 10
321.11844800840697
 20
190.8117884529463
 30
0.0
 40
5.0
 50
90.0
 51
180.0
  0
ARC
  5
6C65
  8
1
 10
321.11844800842522
 20
160.3358185794238
 30
0.0
 40
5.0
 50
180.0
 51
216.9998817880703
  0
LINE
  5
6C66
  8
1
 10
316.9397835363838
 20
220.31178845288991
 30
0.0
 11
316.9397835363838
 21
215.71178845289131
 31
0.0
  0
LINE
  5
6C67
  8
1
 10
314.9397835363838
 20
215.3117884528917
 30
0.0
 11
314.9397835363838
 21
214.511788452887
 31
0.0
  0
ARC
  5
6C68
  8
1
 10
316.53978353638229
 20
215.71178845289219
 30
0.0
 40
0.4
 50
270.0
 51
0.0
  0
ARC
  5
6C69
  8
1
 10
310.9397835363838
 20
209.51178845288521
 30
0.0
 40
5.0
 50
90.0
 51
135.0000000000046
  0
ARC
  5
6C6A
  8
1
 10
321.11844800840697
 20
160.33581857942471
 30
0.0
 40
5.0
 50
180.0
 51
216.99988178811719
  0
LINE
  5
6C6B
  8
1
 10
375.6397835363918
 20
158.78701892465929
 30
0.0
 11
375.63978353638822
 21
164.51178845279509
 31
0.0
  0
LINE
  5
6C6C
  8
1
 10
351.76111906437148
 20
160.3358185794265
 30
0.0
 11
351.76111906437148
 21
190.7407206410814
 31
0.0
  0
ARC
  5
6C6D
  8
1
 10
346.76111906435511
 20
190.8117884529463
 30
0.0
 40
5.0
 50
0.0
 51
90.0
  0
ARC
  5
6C6E
  8
1
 10
346.76111906437148
 20
160.3358185794265
 30
0.0
 40
5.0
 50
323.00011821192948
 51
0.0
  0
LINE
  5
6C6F
  8
1
 10
375.6397835363955
 20
164.51178845279421
 30
0.0
 11
375.6397835363627
 21
195.81178845294721
 31
0.0
  0
ARC
  5
6C70
  8
1
 10
380.63978353638998
 20
158.7870189246612
 30
0.0
 40
5.0
 50
180.0000000000521
 51
210.0000000000029
  0
LINE
  5
6C71
  8
1
 10
376.30965651746777
 20
156.28701892466211
 30
0.0
 11
378.96991055532487
 21
151.6793237700565
 31
0.0
  0
LINE
  5
6C72
  8
1
 10
350.9397835363838
 20
220.31178845288991
 30
0.0
 11
350.9397835363838
 21
215.71178845289131
 31
0.0
  0
LINE
  5
6C73
  8
1
 10
352.9397835363838
 20
215.3117884528917
 30
0.0
 11
352.93978353638562
 21
214.51178845289331
 31
0.0
  0
ARC
  5
6C74
  8
1
 10
351.33978353638162
 20
215.71178845289219
 30
0.0
 40
0.4
 50
180.0
 51
270.0
  0
ARC
  5
6C75
  8
1
 10
346.7611190643533
 20
160.3358185794265
 30
0.0
 40
5.0
 50
323.00011821202332
 51
0.0
  0
LINE
  5
6C76
  8
1
 10
360.47531744231532
 20
213.04732235881849
 30
0.0
 11
374.17531744225789
 21
199.347322358875
 31
0.0
  0
ARC
  5
6C77
  8
1
 10
356.93978353638198
 20
209.51178845288521
 30
0.0
 40
5.0
 50
44.999999999995389
 51
90.0
  0
ARC
  5
6C78
  8
1
 10
370.63978353632632
 20
195.81178845294261
 30
0.0
 40
5.0
 50
0.0000000000521102
 51
44.999999999995389
  0
LINE
  5
6C79
  8
1
 10
312.4397835363784
 20
132.81178845280891
 30
0.0
 11
372.93978353638749
 21
132.81178845280891
 31
0.0
  0
ARC
  5
6C7A
  8
1
 10
377.63978353639908
 20
135.81178845280891
 30
0.0
 40
2.0
 50
270.0
 51
0.0
  0
LINE
  5
6C7B
  8
1
 10
359.84931771125639
 20
133.81178845280891
 30
0.0
 11
377.63978353639908
 21
133.81178845280891
 31
0.0
  0
ARC
  5
6C7C
  8
1
 10
372.93978353638749
 20
134.81178845280891
 30
0.0
 40
2.0
 50
270.0
 51
293.86492541611818
  0
LINE
  5
6C7D
  8
1
 10
373.74894720603561
 20
132.98278485638701
 30
0.0
 11
375.33291078415499
 21
133.68354115012491
 31
0.0
  0
ARC
  5
6C7E
  8
1
 10
375.93978353639289
 20
132.31178845280891
 30
0.0
 40
1.5
 50
90.0
 51
113.8649254161182
  0
ARC
  5
6C7F
  8
1
 10
380.13978353640999
 20
138.5117884528851
 30
0.0
 40
0.5
 50
180.0000000000521
 51
270.0
  0
LINE
  5
6C80
  8
1
 10
380.63978353641181
 20
138.01178845288601
 30
0.0
 11
380.63978353641369
 21
136.8117884528871
 31
0.0
  0
LINE
  5
6C81
  8
1
 10
379.63978353640999
 20
138.5117884528851
 30
0.0
 11
379.63978353640272
 21
149.1793237700592
 31
0.0
  0
ARC
  5
6C82
  8
1
 10
380.13978353640272
 20
135.81178845281261
 30
0.0
 40
0.5
 50
90.0
 51
180.0
  0
LINE
  5
6C83
  8
1
 10
380.63978353639538
 20
136.3117884528144
 30
0.0
 11
380.63978353639538
 21
136.8117884528144
 31
0.0
  0
ARC
  5
6C84
  8
1
 10
333.93978353639841
 20
170.60379316388909
 30
0.0
 40
21.424469393830019
 50
218.29524487041209
 51
321.70475512962952
  0
ARC
  5
6C85
  8
1
 10
374.63978353640272
 20
149.17932377005459
 30
0.0
 40
5.0
 50
0.0000000000521102
 51
30.000000000002931
  0
LINE
  5
6C86
  8
1
 10
292.23978353641041
 20
158.78701892465659
 30
0.0
 11
292.23978353641951
 21
169.5117884528924
 31
0.0
  0
LINE
  5
6C87
  8
1
 10
292.23978353644128
 20
195.8117884529463
 30
0.0
 11
292.23978353641951
 21
169.5117884528924
 31
0.0
  0
ARC
  5
6C88
  8
1
 10
287.23978353641041
 20
158.7870189246612
 30
0.0
 40
5.0
 50
329.99999999999699
 51
359.99999999994782
  0
LINE
  5
6C89
  8
1
 10
291.56991055533263
 20
156.28701892466211
 30
0.0
 11
288.90965651747541
 21
151.6793237700565
 31
0.0
  0
ARC
  5
6C8A
  8
1
 10
297.23978353644128
 20
195.81178845294261
 30
0.0
 40
5.0
 50
135.0000000000046
 51
179.9999999999479
  0
ARC
  5
6C8B
  8
1
 10
290.23978353636488
 20
135.8117884527953
 30
0.0
 40
2.0
 50
180.0
 51
270.0
  0
ARC
  5
6C8C
  8
1
 10
294.93978353638738
 20
134.81178845279621
 30
0.0
 40
2.0
 50
246.1350745838817
 51
270.0
  0
LINE
  5
6C8D
  8
1
 10
294.13061986673569
 20
132.98278485637431
 30
0.0
 11
292.54665628862352
 21
133.6835411501103
 31
0.0
  0
ARC
  5
6C8E
  8
1
 10
291.93978353638738
 20
132.31178845279439
 30
0.0
 40
1.5
 50
66.135074583881718
 51
90.0
  0
LINE
  5
6C8F
  8
1
 10
291.9397835363838
 20
133.81178845279621
 30
0.0
 11
290.2397835363667
 21
133.8117884527953
 31
0.0
  0
LINE
  5
6C90
  8
1
 10
287.23978353638671
 20
138.01178845289149
 30
0.0
 11
287.23978353638489
 21
136.81178845289261
 31
0.0
  0
ARC
  5
6C91
  8
1
 10
287.7397835363613
 20
135.8117884528198
 30
0.0
 40
0.5
 50
0.0
 51
90.0
  0
LINE
  5
6C92
  8
1
 10
287.7397835363613
 20
136.3117884528198
 30
0.0
 11
287.23978353636852
 21
136.3117884528198
 31
0.0
  0
LINE
  5
6C93
  8
1
 10
287.23978353636852
 20
136.3117884528198
 30
0.0
 11
287.23978353636852
 21
136.8117884528198
 31
0.0
  0
ARC
  5
6C94
  8
1
 10
287.73978353639041
 20
138.51178845289061
 30
0.0
 40
0.5
 50
270.0
 51
359.99999999994782
  0
LINE
  5
6C95
  8
1
 10
288.23978353639029
 20
138.51178845289061
 30
0.0
 11
288.23978353639762
 21
149.1793237700592
 31
0.0
  0
ARC
  5
6C96
  8
1
 10
293.23978353639768
 20
149.17932377005459
 30
0.0
 40
5.0
 50
149.99999999999699
 51
179.9999999999479
  0
LINE
  5
6C97
  8
1
 10
380.63978353641181
 20
138.01178845289149
 30
0.0
 11
287.23978353638671
 21
138.01178845289149
 31
0.0
  0
LINE
  5
6C98
  8
1
 10
287.23978353636852
 20
136.31178845266521
 30
0.0
 11
380.63978353639538
 21
136.3117884528144
 31
0.0
  0
LINE
  5
6C99
  8
1
 10
291.93978353638738
 20
133.81178845280891
 30
0.0
 11
359.84931771126361
 21
133.81178845280891
 31
0.0
  0
LINE
  5
6C9A
  8
1
 10
294.9397835363838
 20
132.81178845279621
 30
0.0
 11
312.43978353638022
 21
132.81178845279621
 31
0.0
  0
LINE
  5
6C9B
  8
1
 10
307.40424963045052
 20
213.04732235881849
 30
0.0
 11
293.704249630508
 21
199.347322358875
 31
0.0
  0
LINE
  5
6C9C
  8
1
 10
433.93978353638568
 20
256.31178845288309
 30
0.0
 11
433.93978353638568
 21
262.31178845288298
 31
0.0
  0
LINE
  5
6C9D
  8
1
 10
433.93978353638568
 20
262.31178845288298
 30
0.0
 11
433.93978353638568
 21
268.31178845288298
 31
0.0
  0
LINE
  5
6C9F
  8
CENTER
 10
217.1213759381084
 20
382.82904379814153
 30
0.0
 11
440.8456849951549
 21
382.82904379814153
 31
0.0
  0
LINE
  5
6CA1
  8
1
 10
233.9397835363838
 20
457.82904379813971
 30
0.0
 11
433.93978353638448
 21
457.82904379814062
 31
0.0
  0
CIRCLE
  5
6CA5
  8
1
 10
263.9397835363838
 20
432.82904379814062
 30
0.0
 40
10.0
  0
LINE
  5
6CA6
  8
CENTER
 62
     9
 10
267.9397835363838
 20
432.82904379814062
 30
0.0
 11
275.9397835363838
 21
432.82904379814062
 31
0.0
  0
LINE
  5
6CA7
  8
CENTER
 62
     9
 10
261.9397835363838
 20
432.82904379814062
 30
0.0
 11
265.9397835363838
 21
432.82904379814062
 31
0.0
  0
LINE
  5
6CA8
  8
CENTER
 62
     9
 10
259.9397835363838
 20
432.82904379814062
 30
0.0
 11
251.9397835363838
 21
432.82904379814062
 31
0.0
  0
LINE
  5
6CA9
  8
CENTER
 62
     9
 10
263.9397835363838
 20
436.82904379814062
 30
0.0
 11
263.9397835363838
 21
444.82904379814062
 31
0.0
  0
LINE
  5
6CAA
  8
CENTER
 62
     9
 10
263.9397835363838
 20
428.82904379814062
 30
0.0
 11
263.9397835363838
 21
420.82904379814062
 31
0.0
  0
LINE
  5
6CAB
  8
CENTER
 62
     9
 10
263.9397835363838
 20
430.82904379814067
 30
0.0
 11
263.9397835363838
 21
434.82904379814067
 31
0.0
  0
LINE
  5
6CAC
  8
CENTER
 62
     9
 10
267.9397835363838
 20
332.82904379814062
 30
0.0
 11
275.9397835363838
 21
332.82904379814062
 31
0.0
  0
LINE
  5
6CAD
  8
CENTER
 62
     9
 10
261.9397835363838
 20
332.82904379814062
 30
0.0
 11
265.9397835363838
 21
332.82904379814062
 31
0.0
  0
LINE
  5
6CAE
  8
CENTER
 62
     9
 10
259.9397835363838
 20
332.82904379814062
 30
0.0
 11
251.9397835363838
 21
332.82904379814062
 31
0.0
  0
LINE
  5
6CAF
  8
CENTER
 62
     9
 10
263.9397835363838
 20
336.82904379814062
 30
0.0
 11
263.9397835363838
 21
344.82904379814062
 31
0.0
  0
LINE
  5
6CB0
  8
CENTER
 62
     9
 10
263.9397835363838
 20
330.82904379814062
 30
0.0
 11
263.9397835363838
 21
334.82904379814062
 31
0.0
  0
LINE
  5
6CB1
  8
CENTER
 62
     9
 10
401.9397835363838
 20
432.82904379814062
 30
0.0
 11
405.9397835363838
 21
432.82904379814062
 31
0.0
  0
CIRCLE
  5
6CB2
  8
1
 10
403.9397835363838
 20
432.82904379814062
 30
0.0
 40
10.0
  0
LINE
  5
6CB3
  8
CENTER
 62
     9
 10
401.9397835363838
 20
332.82904379813971
 30
0.0
 11
405.9397835363838
 21
332.82904379813971
 31
0.0
  0
LINE
  5
6CB4
  8
CENTER
 10
374.93978353638562
 20
433.85242229264833
 30
0.0
 11
374.93978353638562
 21
447.80566530363308
 31
0.0
  0
LINE
  5
6CB5
  8
CENTER
 10
381.91640504187802
 20
440.82904379814062
 30
0.0
 11
367.96316203089322
 21
440.82904379814062
 31
0.0
  0
LINE
  5
6CB6
  8
CENTER
 10
299.9164050418762
 20
440.82904379814062
 30
0.0
 11
285.9631620308914
 21
440.82904379814062
 31
0.0
  0
LINE
  5
6CB7
  8
CENTER
 10
292.9397835363838
 20
433.85242229264833
 30
0.0
 11
292.9397835363838
 21
447.80566530363308
 31
0.0
  0
CIRCLE
  5
6CB8
  8
1
 10
333.93978353638062
 20
382.82904379814153
 30
0.0
 40
39.0
  0
CIRCLE
  5
6CB9
  8
1
  6
HIDDEN
 10
374.93978353638562
 20
440.82904379814062
 30
0.0
 40
5.0
  0
CIRCLE
  5
6CBA
  8
1
 62
     9
 10
374.93978353638562
 20
440.82904379814062
 30
0.0
 40
4.0
  0
CIRCLE
  5
6CBB
  8
1
 10
374.93978353638562
 20
440.82904379814062
 30
0.0
 40
3.2999999999999989
  0
LINE
  5
6CBC
  8
CENTER
 62
     9
 10
399.9397835363838
 20
432.82904379814062
 30
0.0
 11
391.9397835363838
 21
432.82904379814062
 31
0.0
  0
LINE
  5
6CBD
  8
CENTER
 62
     9
 10
399.9397835363838
 20
332.82904379813971
 30
0.0
 11
391.9397835363838
 21
332.82904379813971
 31
0.0
  0
CIRCLE
  5
6CBE
  8
1
  6
HIDDEN
 10
292.9397835363838
 20
440.82904379814062
 30
0.0
 40
5.0
  0
CIRCLE
  5
6CBF
  8
1
 10
292.9397835363838
 20
440.82904379814062
 30
0.0
 40
3.2999999999999989
  0
CIRCLE
  5
6CC0
  8
1
 62
     9
 10
292.9397835363838
 20
440.82904379814062
 30
0.0
 40
4.0
  0
CIRCLE
  5
6CC1
  8
1
  6
HIDDEN
 10
333.9397835363838
 20
382.82904379814153
 30
0.0
 40
39.5
  0
LINE
  5
6CC3
  8
CENTER
 62
     9
 10
403.9397835363838
 20
436.82904379814062
 30
0.0
 11
403.9397835363838
 21
444.82904379814062
 31
0.0
  0
LINE
  5
6CC4
  8
CENTER
 62
     9
 10
403.9397835363838
 20
428.82904379814062
 30
0.0
 11
403.9397835363838
 21
420.82904379814062
 31
0.0
  0
LINE
  5
6CC5
  8
CENTER
 62
     9
 10
407.9397835363838
 20
432.82904379814062
 30
0.0
 11
415.9397835363838
 21
432.82904379814062
 31
0.0
  0
LINE
  5
6CC6
  8
CENTER
 62
     9
 10
403.9397835363838
 20
430.82904379814067
 30
0.0
 11
403.9397835363838
 21
434.82904379814067
 31
0.0
  0
LINE
  5
6CC7
  8
CENTER
 62
     9
 10
403.9397835363838
 20
336.82904379813971
 30
0.0
 11
403.9397835363838
 21
344.82904379813971
 31
0.0
  0
LINE
  5
6CC8
  8
CENTER
 62
     9
 10
407.9397835363838
 20
332.82904379813971
 30
0.0
 11
415.9397835363838
 21
332.82904379813971
 31
0.0
  0
LINE
  5
6CC9
  8
CENTER
 62
     9
 10
403.9397835363838
 20
330.82904379813971
 30
0.0
 11
403.9397835363838
 21
334.82904379813971
 31
0.0
  0
VIEWPORT
  5
22
 67
     1
  8
0
 10
203.4351414475905
 20
133.50335083648071
 30
0.0
 40
587.90519270867674
 41
366.96354966962042
 68
     1
 69
     1
1001
ACAD
1000
MVIEW
1002
{
1070
    16
1010
0.0
1020
0.0
1030
0.0
1010
0.0
1020
0.0
1030
1.0
1040
0.0
1040
366.96354966962042
1040
203.4351414475905
1040
133.50335083648071
1040
50.0
1040
0.0
1040
0.0
1070
     0
1070
   100
1070
     1
1070
     0
1070
     0
1070
     0
1070
     0
1070
     0
1040
0.0
1040
0.0
1040
0.0
1040
1.0
1040
1.0
1040
10.0
1040
10.0
1070
     0
1002
{
1002
}
1002
}
  0
VIEWPORT
  5
2CF
 67
     1
  8
DEFPOINTS
 10
212.49999999999989
 20
149.49999999999989
 30
0.0
 40
384.99999999999977
 41
265.0
 68
     2
 69
     2
1001
ACAD
1000
MVIEW
1002
{
1070
    16
1010
0.0
1020
0.0
1030
0.0
1010
0.0
1020
0.0
1030
1.0
1040
0.0
1040
530.00000091915456
1040
274.00284710456361
1040
247.27044313099799
1040
50.0
1040
0.0
1040
0.0
1070
     0
1070
   100
1070
     1
1070
     0
1070
     0
1070
     0
1070
     0
1070
     1
1040
0.0
1040
0.0
1040
0.0
1040
168.0
1040
168.0
1040
0.0
1040
0.0
1070
     0
1002
{
1002
}
1002
}
  0
ENDSEC
  0
EOF
